  0
SECTION
  2
HEADER
  9
$ACADVER
  1
AC1032
  9
$ACADMAINTVER
 90
        4
  9
$DWGCODEPAGE
  3
ANSI_1252
  9
$LASTSAVEDBY
  1
John Welin
  9
$REQUIREDVERSIONS
160
                 0
  9
$INSBASE
 10
0.0
 20
0.0
 30
0.0
  9
$EXTMIN
 10
-1.105866302864942
 20
-918.9770655849274
 30
0.0
  9
$EXTMAX
 10
1540.49886916866
 20
160.274243461304
 30
0.0
  9
$LIMMIN
 10
0.0
 20
0.0
  9
$LIMMAX
 10
12.0
 20
9.0
  9
$ORTHOMODE
 70
     1
  9
$REGENMODE
 70
     1
  9
$FILLMODE
 70
     1
  9
$QTEXTMODE
 70
     0
  9
$MIRRTEXT
 70
     0
  9
$LTSCALE
 40
1.0
  9
$ATTMODE
 70
     1
  9
$TEXTSIZE
 40
0.4
  9
$TRACEWID
 40
0.05
  9
$TEXTSTYLE
  7
Standard
  9
$CLAYER
  8
laserbed
  9
$CELTYPE
  6
ByLayer
  9
$CECOLOR
 62
   256
  9
$CELTSCALE
 40
1.0
  9
$DISPSILH
 70
     0
  9
$DIMSCALE
 40
1.0
  9
$DIMASZ
 40
0.18
  9
$DIMEXO
 40
0.0625
  9
$DIMDLI
 40
0.38
  9
$DIMRND
 40
0.0
  9
$DIMDLE
 40
0.0
  9
$DIMEXE
 40
0.18
  9
$DIMTP
 40
0.0
  9
$DIMTM
 40
0.0
  9
$DIMTXT
 40
0.18
  9
$DIMCEN
 40
0.09
  9
$DIMTSZ
 40
0.0
  9
$DIMTOL
 70
     0
  9
$DIMLIM
 70
     0
  9
$DIMTIH
 70
     1
  9
$DIMTOH
 70
     1
  9
$DIMSE1
 70
     0
  9
$DIMSE2
 70
     0
  9
$DIMTAD
 70
     0
  9
$DIMZIN
 70
     0
  9
$DIMBLK
  1

  9
$DIMASO
 70
     1
  9
$DIMSHO
 70
     1
  9
$DIMPOST
  1

  9
$DIMAPOST
  1

  9
$DIMALT
 70
     0
  9
$DIMALTD
 70
     2
  9
$DIMALTF
 40
25.4
  9
$DIMLFAC
 40
1.0
  9
$DIMTOFL
 70
     0
  9
$DIMTVP
 40
0.0
  9
$DIMTIX
 70
     0
  9
$DIMSOXD
 70
     0
  9
$DIMSAH
 70
     0
  9
$DIMBLK1
  1

  9
$DIMBLK2
  1

  9
$DIMSTYLE
  2
Standard
  9
$DIMCLRD
 70
     0
  9
$DIMCLRE
 70
     0
  9
$DIMCLRT
 70
     0
  9
$DIMTFAC
 40
1.0
  9
$DIMGAP
 40
0.09
  9
$DIMJUST
 70
     0
  9
$DIMSD1
 70
     0
  9
$DIMSD2
 70
     0
  9
$DIMTOLJ
 70
     1
  9
$DIMTZIN
 70
     0
  9
$DIMALTZ
 70
     0
  9
$DIMALTTZ
 70
     0
  9
$DIMUPT
 70
     0
  9
$DIMDEC
 70
     4
  9
$DIMTDEC
 70
     4
  9
$DIMALTU
 70
     2
  9
$DIMALTTD
 70
     2
  9
$DIMTXSTY
  7
Standard
  9
$DIMAUNIT
 70
     0
  9
$DIMADEC
 70
     0
  9
$DIMALTRND
 40
0.0
  9
$DIMAZIN
 70
     0
  9
$DIMDSEP
 70
    46
  9
$DIMATFIT
 70
     3
  9
$DIMFRAC
 70
     0
  9
$DIMLDRBLK
  1

  9
$DIMLUNIT
 70
     2
  9
$DIMLWD
 70
    -2
  9
$DIMLWE
 70
    -2
  9
$DIMTMOVE
 70
     0
  9
$DIMFXL
 40
1.0
  9
$DIMFXLON
 70
     0
  9
$DIMJOGANG
 40
0.7853981633974483
  9
$DIMTFILL
 70
     0
  9
$DIMTFILLCLR
 70
     0
  9
$DIMARCSYM
 70
     0
  9
$DIMLTYPE
  6

  9
$DIMLTEX1
  6

  9
$DIMLTEX2
  6

  9
$DIMTXTDIRECTION
 70
     0
  9
$LUNITS
 70
     2
  9
$LUPREC
 70
     4
  9
$SKETCHINC
 40
0.1
  9
$FILLETRAD
 40
0.2
  9
$AUNITS
 70
     0
  9
$AUPREC
 70
     0
  9
$MENU
  1
.
  9
$ELEVATION
 40
0.0
  9
$PELEVATION
 40
0.0
  9
$THICKNESS
 40
0.0
  9
$LIMCHECK
 70
     0
  9
$CHAMFERA
 40
0.0
  9
$CHAMFERB
 40
0.0
  9
$CHAMFERC
 40
0.0
  9
$CHAMFERD
 40
0.0
  9
$SKPOLY
 70
     0
  9
$TDCREATE
 40
2458380.674398148
  9
$TDUCREATE
 40
2458380.882731482
  9
$TDUPDATE
 40
2458380.674745370
  9
$TDUUPDATE
 40
2458380.883078704
  9
$TDINDWG
 40
0.0003472222
  9
$TDUSRTIMER
 40
0.0003472222
  9
$USRTIMER
 70
     1
  9
$ANGBASE
 50
0.0
  9
$ANGDIR
 70
     0
  9
$PDMODE
 70
     0
  9
$PDSIZE
 40
0.0
  9
$PLINEWID
 40
0.0
  9
$SPLFRAME
 70
     0
  9
$SPLINETYPE
 70
     6
  9
$SPLINESEGS
 70
     8
  9
$HANDSEED
  5
118A
  9
$SURFTAB1
 70
     6
  9
$SURFTAB2
 70
     6
  9
$SURFTYPE
 70
     6
  9
$SURFU
 70
     6
  9
$SURFV
 70
     6
  9
$UCSBASE
  2

  9
$UCSNAME
  2

  9
$UCSORG
 10
0.0
 20
0.0
 30
0.0
  9
$UCSXDIR
 10
1.0
 20
0.0
 30
0.0
  9
$UCSYDIR
 10
0.0
 20
1.0
 30
0.0
  9
$UCSORTHOREF
  2

  9
$UCSORTHOVIEW
 70
     0
  9
$UCSORGTOP
 10
0.0
 20
0.0
 30
0.0
  9
$UCSORGBOTTOM
 10
0.0
 20
0.0
 30
0.0
  9
$UCSORGLEFT
 10
0.0
 20
0.0
 30
0.0
  9
$UCSORGRIGHT
 10
0.0
 20
0.0
 30
0.0
  9
$UCSORGFRONT
 10
0.0
 20
0.0
 30
0.0
  9
$UCSORGBACK
 10
0.0
 20
0.0
 30
0.0
  9
$PUCSBASE
  2

  9
$PUCSNAME
  2

  9
$PUCSORG
 10
0.0
 20
0.0
 30
0.0
  9
$PUCSXDIR
 10
1.0
 20
0.0
 30
0.0
  9
$PUCSYDIR
 10
0.0
 20
1.0
 30
0.0
  9
$PUCSORTHOREF
  2

  9
$PUCSORTHOVIEW
 70
     0
  9
$PUCSORGTOP
 10
0.0
 20
0.0
 30
0.0
  9
$PUCSORGBOTTOM
 10
0.0
 20
0.0
 30
0.0
  9
$PUCSORGLEFT
 10
0.0
 20
0.0
 30
0.0
  9
$PUCSORGRIGHT
 10
0.0
 20
0.0
 30
0.0
  9
$PUCSORGFRONT
 10
0.0
 20
0.0
 30
0.0
  9
$PUCSORGBACK
 10
0.0
 20
0.0
 30
0.0
  9
$USERI1
 70
     0
  9
$USERI2
 70
     0
  9
$USERI3
 70
     0
  9
$USERI4
 70
     0
  9
$USERI5
 70
     0
  9
$USERR1
 40
0.0
  9
$USERR2
 40
0.0
  9
$USERR3
 40
0.0
  9
$USERR4
 40
0.0
  9
$USERR5
 40
0.0
  9
$WORLDVIEW
 70
     1
  9
$SHADEDGE
 70
     3
  9
$SHADEDIF
 70
    70
  9
$TILEMODE
 70
     1
  9
$MAXACTVP
 70
    64
  9
$PINSBASE
 10
0.0
 20
0.0
 30
0.0
  9
$PLIMCHECK
 70
     0
  9
$PEXTMIN
 10
0.0
 20
0.0
 30
0.0
  9
$PEXTMAX
 10
0.0
 20
0.0
 30
0.0
  9
$PLIMMIN
 10
0.0
 20
0.0
  9
$PLIMMAX
 10
12.0
 20
9.0
  9
$UNITMODE
 70
     0
  9
$VISRETAIN
 70
     1
  9
$PLINEGEN
 70
     0
  9
$PSLTSCALE
 70
     1
  9
$TREEDEPTH
 70
  3020
  9
$CMLSTYLE
  2
Standard
  9
$CMLJUST
 70
     0
  9
$CMLSCALE
 40
1.0
  9
$PROXYGRAPHICS
 70
     1
  9
$MEASUREMENT
 70
     0
  9
$CELWEIGHT
370
    -1
  9
$ENDCAPS
280
     0
  9
$JOINSTYLE
280
     0
  9
$LWDISPLAY
290
     0
  9
$INSUNITS
 70
     1
  9
$HYPERLINKBASE
  1

  9
$STYLESHEET
  1
C:\Users\MHUB-CAD-LOVELACE\appdata\roaming\autodesk\autocad 2017\r21.0\enu\plotters\plot styles\ULS.ctb
  9
$XEDIT
290
     1
  9
$CEPSNTYPE
380
     0
  9
$PSTYLEMODE
290
     1
  9
$FINGERPRINTGUID
  2
{D0D2AED1-7F69-754D-AE2C-CDF18EC29F9D}
  9
$VERSIONGUID
  2
{927B17E1-9DAA-6A4F-8981-0BBBF3812C18}
  9
$EXTNAMES
290
     1
  9
$PSVPSCALE
 40
0.0
  9
$OLESTARTUP
290
     0
  9
$SORTENTS
280
   127
  9
$INDEXCTL
280
     0
  9
$HIDETEXT
280
     1
  9
$XCLIPFRAME
280
     2
  9
$HALOGAP
280
     0
  9
$OBSCOLOR
 70
   257
  9
$OBSLTYPE
280
     0
  9
$INTERSECTIONDISPLAY
280
     0
  9
$INTERSECTIONCOLOR
 70
   257
  9
$DIMASSOC
280
     2
  9
$PROJECTNAME
  1

  9
$CAMERADISPLAY
290
     0
  9
$LENSLENGTH
 40
50.0
  9
$CAMERAHEIGHT
 40
0.0
  9
$STEPSPERSEC
 40
2.0
  9
$STEPSIZE
 40
6.0
  9
$3DDWFPREC
 40
2.0
  9
$PSOLWIDTH
 40
0.25
  9
$PSOLHEIGHT
 40
4.0
  9
$LOFTANG1
 40
1.570796326794896
  9
$LOFTANG2
 40
1.570796326794896
  9
$LOFTMAG1
 40
0.0
  9
$LOFTMAG2
 40
0.0
  9
$LOFTPARAM
 70
     7
  9
$LOFTNORMALS
280
     1
  9
$LATITUDE
 40
37.795
  9
$LONGITUDE
 40
-122.394
  9
$NORTHDIRECTION
 40
0.0
  9
$TIMEZONE
 70
 -8000
  9
$LIGHTGLYPHDISPLAY
280
     1
  9
$TILEMODELIGHTSYNCH
280
     1
  9
$CMATERIAL
347
96
  9
$SOLIDHIST
280
     0
  9
$SHOWHIST
280
     1
  9
$DWFFRAME
280
     2
  9
$DGNFRAME
280
     0
  9
$REALWORLDSCALE
290
     1
  9
$INTERFERECOLOR
 62
     1
  9
$INTERFEREOBJVS
345
A3
  9
$INTERFEREVPVS
346
A0
  9
$CSHADOW
280
     0
  9
$SHADOWPLANELOCATION
 40
0.0
  0
ENDSEC
  0
SECTION
  2
CLASSES
  0
CLASS
  1
ACDBDICTIONARYWDFLT
  2
AcDbDictionaryWithDefault
  3
ObjectDBX Classes
 90
        0
 91
        1
280
     0
281
     0
  0
CLASS
  1
DICTIONARYVAR
  2
AcDbDictionaryVar
  3
ObjectDBX Classes
 90
        0
 91
        9
280
     0
281
     0
  0
CLASS
  1
TABLESTYLE
  2
AcDbTableStyle
  3
ObjectDBX Classes
 90
     4095
 91
        1
280
     0
281
     0
  0
CLASS
  1
MATERIAL
  2
AcDbMaterial
  3
ObjectDBX Classes
 90
     1153
 91
        3
280
     0
281
     0
  0
CLASS
  1
VISUALSTYLE
  2
AcDbVisualStyle
  3
ObjectDBX Classes
 90
     4095
 91
       24
280
     0
281
     0
  0
CLASS
  1
SCALE
  2
AcDbScale
  3
ObjectDBX Classes
 90
     1153
 91
       33
280
     0
281
     0
  0
CLASS
  1
MLEADERSTYLE
  2
AcDbMLeaderStyle
  3
ACDB_MLEADERSTYLE_CLASS
 90
     4095
 91
        2
280
     0
281
     0
  0
CLASS
  1
CELLSTYLEMAP
  2
AcDbCellStyleMap
  3
ObjectDBX Classes
 90
     1152
 91
        1
280
     0
281
     0
  0
CLASS
  1
EXACXREFPANELOBJECT
  2
ExAcXREFPanelObject
  3
EXAC_ESW
 90
     1025
 91
        0
280
     0
281
     0
  0
CLASS
  1
NPOCOLLECTION
  2
AcDbImpNonPersistentObjectsCollection
  3
ObjectDBX Classes
 90
     1153
 91
        0
280
     0
281
     0
  0
CLASS
  1
LAYER_INDEX
  2
AcDbLayerIndex
  3
ObjectDBX Classes
 90
        0
 91
        0
280
     0
281
     0
  0
CLASS
  1
SPATIAL_INDEX
  2
AcDbSpatialIndex
  3
ObjectDBX Classes
 90
        0
 91
        0
280
     0
281
     0
  0
CLASS
  1
IDBUFFER
  2
AcDbIdBuffer
  3
ObjectDBX Classes
 90
        0
 91
        0
280
     0
281
     0
  0
CLASS
  1
ACDBSECTIONVIEWSTYLE
  2
AcDbSectionViewStyle
  3
ObjectDBX Classes
 90
     1025
 91
        1
280
     0
281
     0
  0
CLASS
  1
ACDBDETAILVIEWSTYLE
  2
AcDbDetailViewStyle
  3
ObjectDBX Classes
 90
     1025
 91
        1
280
     0
281
     0
  0
CLASS
  1
DIMASSOC
  2
AcDbDimAssoc
  3
"AcDbDimAssoc|Product Desc:     AcDim ARX App For Dimension|Company:          Autodesk, Inc.|WEB Address:      www.autodesk.com"
 90
        0
 91
        0
280
     0
281
     0
  0
CLASS
  1
SORTENTSTABLE
  2
AcDbSortentsTable
  3
ObjectDBX Classes
 90
        0
 91
        3
280
     0
281
     0
  0
CLASS
  1
ACAD_EVALUATION_GRAPH
  2
AcDbEvalGraph
  3
ObjectDBX Classes
 90
     1153
 91
        1
280
     0
281
     0
  0
CLASS
  1
ACAECUSTOBJ
  2
AcAeEditorObj
  3
AcAeEditorObj
 90
     1024
 91
        0
280
     0
281
     0
  0
CLASS
  1
BLOCKBASEPOINTPARAMETER
  2
AcDbBlockBasepointParameter
  3
ObjectDBX Classes
 90
     1153
 91
        1
280
     0
281
     0
  0
CLASS
  1
BASEPOINTPARAMETERENTITY
  2
AcDbBlockBasepointParameterEntity
  3
ObjectDBX Classes
 90
     1025
 91
        0
280
     0
281
     1
  0
CLASS
  1
ACAEEEMGROBJ
  2
AcAeEEMgrObj
  3
AcAeEEMgrObj
 90
     1024
 91
        0
280
     0
281
     0
  0
CLASS
  1
ACDB_DYNAMICBLOCKPURGEPREVENTER_VERSION
  2
AcDbDynamicBlockPurgePreventer
  3
ObjectDBX Classes
 90
     1153
 91
        1
280
     0
281
     0
  0
CLASS
  1
SOLID_BACKGROUND
  2
AcDbSolidBackground
  3
SCENEOE
 90
     4095
 91
        0
280
     0
281
     0
  0
CLASS
  1
GROUND_PLANE_BACKGROUND
  2
AcDbGroundPlaneBackground
  3
SCENEOE
 90
     4095
 91
        0
280
     0
281
     0
  0
CLASS
  1
ACDB_BLOCKREPRESENTATION_DATA
  2
AcDbBlockRepresentationData
  3
ObjectDBX Classes
 90
     1153
 91
        0
280
     0
281
     0
  0
CLASS
  1
PLOTSETTINGS
  2
AcDbPlotSettings
  3
ObjectDBX Classes
 90
        0
 91
        1
280
     0
281
     0
  0
CLASS
  1
RASTERVARIABLES
  2
AcDbRasterVariables
  3
ISM
 90
        0
 91
        1
280
     0
281
     0
  0
CLASS
  1
IMAGEDEF
  2
AcDbRasterImageDef
  3
ISM
 90
        0
 91
        1
280
     0
281
     0
  0
CLASS
  1
IMAGEDEF_REACTOR
  2
AcDbRasterImageDefReactor
  3
ISM
 90
        1
 91
        0
280
     0
281
     0
  0
CLASS
  1
IMAGE
  2
AcDbRasterImage
  3
ISM
 90
     2175
 91
        0
280
     0
281
     1
  0
CLASS
  1
ACARRAYJIGENTITY
  2
AcArrayJigEntity
  3
ACAD_ARRAY
 90
      129
 91
        0
280
     0
281
     1
  0
CLASS
  1
ACDBASSOCNETWORK
  2
AcDbAssocNetwork
  3
ObjectDBX Classes
 90
     1025
 91
        0
280
     0
281
     0
  0
CLASS
  1
ACDBASSOCACTION
  2
AcDbAssocAction
  3
ObjectDBX Classes
 90
     1025
 91
        0
280
     0
281
     0
  0
CLASS
  1
ACDBASSOCARRAYACTIONBODY
  2
AcDbAssocArrayActionBody
  3
ObjectDBX Classes
 90
     1025
 91
        0
280
     0
281
     0
  0
CLASS
  1
ACDBASSOCVERTEXACTIONPARAM
  2
AcDbAssocVertexActionParam
  3
ObjectDBX Classes
 90
     1025
 91
        0
280
     0
281
     0
  0
CLASS
  1
ACDBASSOCDEPENDENCY
  2
AcDbAssocDependency
  3
ObjectDBX Classes
 90
     1025
 91
        0
280
     0
281
     0
  0
CLASS
  1
ACDBASSOCARRAYRECTANGULARPARAMETERS
  2
AcDbAssocArrayRectangularParameters
  3
ObjectDBX Classes
 90
     1025
 91
        0
280
     0
281
     0
  0
CLASS
  1
ACDBASSOCENTITYCLONEACTIONBODY
  2
AcDbAssocEntityCloneActionBody
  3
ObjectDBX Classes
 90
     1025
 91
        0
280
     0
281
     0
  0
ENDSEC
  0
SECTION
  2
TABLES
  0
TABLE
  2
VPORT
  5
8
330
0
100
AcDbSymbolTable
 70
     1
  0
VPORT
  5
94
330
8
100
AcDbSymbolTableRecord
100
AcDbViewportTableRecord
  2
*Active
 70
     0
 10
0.0
 20
0.0
 11
1.0
 21
1.0
 12
849.73101816053
 22
-138.8237138108692
 13
0.0
 23
0.0
 14
0.5
 24
0.5
 15
0.5
 25
0.5
 16
-0.0000000000000959
 26
0.0
 36
428.7015225240105
 17
-19.37394523620605
 27
14.63390626013279
 37
0.0
 40
923.3445635448831
 41
2.296532846715328
 42
50.0
 43
0.0
 44
0.0
 50
0.0
 51
0.0
 71
     0
 72
  1000
 73
     1
 74
     3
 75
     0
 76
     0
 77
     0
 78
     0
281
     0
 65
     1
110
0.0
120
0.0
130
0.0
111
1.0
121
0.0
131
0.0
112
0.0
122
1.0
132
0.0
 79
     0
146
0.0
348
9F
 60
     3
 61
     5
292
     1
282
     1
141
0.0
142
0.0
 63
   250
421
  3355443
1001
ACAD_NAV_VCDISPLAY
1070
     3
  0
ENDTAB
  0
TABLE
  2
LTYPE
  5
5
330
0
100
AcDbSymbolTable
 70
     6
  0
LTYPE
  5
14
330
5
100
AcDbSymbolTableRecord
100
AcDbLinetypeTableRecord
  2
ByBlock
 70
     0
  3

 72
    65
 73
     0
 40
0.0
  0
LTYPE
  5
15
330
5
100
AcDbSymbolTableRecord
100
AcDbLinetypeTableRecord
  2
ByLayer
 70
     0
  3

 72
    65
 73
     0
 40
0.0
  0
LTYPE
  5
16
330
5
100
AcDbSymbolTableRecord
100
AcDbLinetypeTableRecord
  2
Continuous
 70
     0
  3
Solid line
 72
    65
 73
     0
 40
0.0
  0
LTYPE
  5
2BB
330
5
100
AcDbSymbolTableRecord
100
AcDbLinetypeTableRecord
  2
HIDDEN
 70
     0
  3
Hidden __ __ __ __ __ __ __ __ __ __ __ __ __ __
 72
    65
 73
     2
 40
0.075
 49
0.05
 74
     0
 49
-0.025
 74
     0
  0
LTYPE
  5
2BC
330
5
100
AcDbSymbolTableRecord
100
AcDbLinetypeTableRecord
  2
PHANTOM
 70
     0
  3
Phantom ______  __  __  ______  __  __  ______
 72
    65
 73
     6
 40
0.5
 49
0.25
 74
     0
 49
-0.05
 74
     0
 49
0.05
 74
     0
 49
-0.05
 74
     0
 49
0.05
 74
     0
 49
-0.05
 74
     0
  0
LTYPE
  5
2BD
330
5
100
AcDbSymbolTableRecord
100
AcDbLinetypeTableRecord
  2
CENTER
 70
     0
  3
Center ____ _ ____ _ ____ _ ____ _ ____ _ ____
 72
    65
 73
     4
 40
0.4
 49
0.25
 74
     0
 49
-0.05
 74
     0
 49
0.05
 74
     0
 49
-0.05
 74
     0
  0
LTYPE
  5
2BE
330
5
100
AcDbSymbolTableRecord
100
AcDbLinetypeTableRecord
  2
CENTERX2
 70
     0
  3
Center (2x) ________  __  ________  __  _____
 72
    65
 73
     4
 40
0.8
 49
0.5
 74
     0
 49
-0.1
 74
     0
 49
0.1
 74
     0
 49
-0.1
 74
     0
  0
LTYPE
  5
2BF
330
5
100
AcDbSymbolTableRecord
100
AcDbLinetypeTableRecord
  2
DOT2
 70
     0
  3
Dot (.5x) ........................................
 72
    65
 73
     2
 40
0.025
 49
0.0
 74
     0
 49
-0.025
 74
     0
  0
ENDTAB
  0
TABLE
  2
LAYER
  5
2
102
{ACAD_XDICTIONARY
360
18E
102
}
330
0
100
AcDbSymbolTable
 70
     8
  0
LAYER
  5
10
102
{ACAD_XDICTIONARY
360
E6
102
}
330
2
100
AcDbSymbolTableRecord
100
AcDbLayerTableRecord
  2
0
 70
     0
 62
     7
  6
Continuous
370
    -3
390
F
347
98
348
0
  0
LAYER
  5
1FA
330
2
100
AcDbSymbolTableRecord
100
AcDbLayerTableRecord
  2
cut
 70
     0
 62
     1
  6
Continuous
370
    -3
390
F
347
98
348
0
1001
AcAecLayerStandard
1000

1000

1001
AcCmTransparency
1071
        0
  0
LAYER
  5
1FD
330
2
100
AcDbSymbolTableRecord
100
AcDbLayerTableRecord
  2
laserbed
 70
     0
 62
     7
  6
Continuous
290
     0
370
    -3
390
F
347
98
348
0
1001
AcAecLayerStandard
1000

1000

1001
AcCmTransparency
1071
        0
  0
LAYER
  5
227
330
2
100
AcDbSymbolTableRecord
100
AcDbLayerTableRecord
  2
Defpoints
 70
     0
 62
     7
  6
Continuous
290
     0
370
    -3
390
F
347
98
348
0
  0
LAYER
  5
289
330
2
100
AcDbSymbolTableRecord
100
AcDbLayerTableRecord
  2
score
 70
     0
 62
     5
  6
Continuous
370
    -3
390
F
347
98
348
0
1001
AcAecLayerStandard
1000

1000

1001
AcCmTransparency
1071
        0
  0
LAYER
  5
28A
330
2
100
AcDbSymbolTableRecord
100
AcDbLayerTableRecord
  2
raster
 70
     0
 62
     7
  6
Continuous
370
    30
390
F
347
98
348
0
1001
AcAecLayerStandard
1000

1000

1001
AcCmTransparency
1071
        0
  0
LAYER
  5
2B8
330
2
100
AcDbSymbolTableRecord
100
AcDbLayerTableRecord
  2
registration
 70
     0
 62
     7
  6
Continuous
290
     0
370
    -3
390
F
347
98
348
0
1001
AcAecLayerStandard
1000

1000

1001
AcCmTransparency
1071
        0
  0
LAYER
  5
8CF
330
2
100
AcDbSymbolTableRecord
100
AcDbLayerTableRecord
  2
*ADSK_ASSOC_ENTITY_BACKUPS
 70
     5
 62
    -7
  6
Continuous
370
    -3
390
F
347
98
348
0
  0
ENDTAB
  0
TABLE
  2
STYLE
  5
3
330
0
100
AcDbSymbolTable
 70
     2
  0
STYLE
  5
11
330
3
100
AcDbSymbolTableRecord
100
AcDbTextStyleTableRecord
  2
Standard
 70
     0
 40
0.0
 41
1.0
 50
0.0
 71
     0
 42
0.4
  3
arial.ttf
  4

1001
ACAD
1000
Arial
1071
       34
  0
STYLE
  5
DC
330
3
100
AcDbSymbolTableRecord
100
AcDbTextStyleTableRecord
  2
Annotative
 70
     0
 40
0.0
 41
1.0
 50
0.0
 71
     0
 42
0.2
  3
arial.ttf
  4

1001
AcadAnnotative
1000
AnnotativeData
1002
{
1070
     1
1070
     1
1002
}
1001
ACAD
1000
Arial
1071
       34
  0
ENDTAB
  0
TABLE
  2
VIEW
  5
6
330
0
100
AcDbSymbolTable
 70
     0
  0
ENDTAB
  0
TABLE
  2
UCS
  5
7
330
0
100
AcDbSymbolTable
 70
     0
  0
ENDTAB
  0
TABLE
  2
APPID
  5
9
330
0
100
AcDbSymbolTable
 70
    18
  0
APPID
  5
12
330
9
100
AcDbSymbolTableRecord
100
AcDbRegAppTableRecord
  2
ACAD
 70
     0
  0
APPID
  5
DD
330
9
100
AcDbSymbolTableRecord
100
AcDbRegAppTableRecord
  2
AcadAnnoPO
 70
     0
  0
APPID
  5
DE
330
9
100
AcDbSymbolTableRecord
100
AcDbRegAppTableRecord
  2
AcadAnnotative
 70
     0
  0
APPID
  5
DF
330
9
100
AcDbSymbolTableRecord
100
AcDbRegAppTableRecord
  2
ACAD_DSTYLE_DIMJAG
 70
     0
  0
APPID
  5
E0
330
9
100
AcDbSymbolTableRecord
100
AcDbRegAppTableRecord
  2
ACAD_DSTYLE_DIMTALN
 70
     0
  0
APPID
  5
107
330
9
100
AcDbSymbolTableRecord
100
AcDbRegAppTableRecord
  2
ACAD_MLEADERVER
 70
     0
  0
APPID
  5
1A6
330
9
100
AcDbSymbolTableRecord
100
AcDbRegAppTableRecord
  2
ACAD_NAV_VCDISPLAY
 70
     0
  0
APPID
  5
1FB
330
9
100
AcDbSymbolTableRecord
100
AcDbRegAppTableRecord
  2
AcAecLayerStandard
 70
     0
  0
APPID
  5
1FC
330
9
100
AcDbSymbolTableRecord
100
AcDbRegAppTableRecord
  2
AcCmTransparency
 70
     0
  0
APPID
  5
213
330
9
100
AcDbSymbolTableRecord
100
AcDbRegAppTableRecord
  2
ACAD_PSEXT
 70
     0
  0
APPID
  5
28B
330
9
100
AcDbSymbolTableRecord
100
AcDbRegAppTableRecord
  2
ACAD_EXEMPT_FROM_CAD_STANDARDS
 70
     0
  0
APPID
  5
345
330
9
100
AcDbSymbolTableRecord
100
AcDbRegAppTableRecord
  2
ACAUTHENVIRON
 70
     0
  0
APPID
  5
351
330
9
100
AcDbSymbolTableRecord
100
AcDbRegAppTableRecord
  2
AcDbDynamicBlockTrueName
 70
     0
  0
APPID
  5
352
330
9
100
AcDbSymbolTableRecord
100
AcDbRegAppTableRecord
  2
AcDbDynamicBlockGUID
 70
     0
  0
APPID
  5
354
330
9
100
AcDbSymbolTableRecord
100
AcDbRegAppTableRecord
  2
AcDbBlockRepETag
 70
     0
  0
APPID
  5
3FB
330
9
100
AcDbSymbolTableRecord
100
AcDbRegAppTableRecord
  2
GradientColor1ACI
 70
     0
  0
APPID
  5
3FC
330
9
100
AcDbSymbolTableRecord
100
AcDbRegAppTableRecord
  2
GradientColor2ACI
 70
     0
  0
APPID
  5
3FF
330
9
100
AcDbSymbolTableRecord
100
AcDbRegAppTableRecord
  2
AcDbBlockRepBTag
 70
     0
  0
ENDTAB
  0
TABLE
  2
DIMSTYLE
  5
A
330
0
100
AcDbSymbolTable
 70
     2
100
AcDbDimStyleTable
 71
     2
340
27
340
E1
  0
DIMSTYLE
105
27
330
A
100
AcDbSymbolTableRecord
100
AcDbDimStyleTableRecord
  2
Standard
 70
     0
340
11
  0
DIMSTYLE
105
E1
330
A
100
AcDbSymbolTableRecord
100
AcDbDimStyleTableRecord
  2
Annotative
 70
     0
 40
0.0
340
11
1001
AcadAnnotative
1000
AnnotativeData
1002
{
1070
     1
1070
     1
1002
}
1001
ACAD_DSTYLE_DIMJAG
1070
   388
1040
1.5
1001
ACAD_DSTYLE_DIMTALN
1070
   392
1070
     0
  0
ENDTAB
  0
TABLE
  2
BLOCK_RECORD
  5
1
330
0
100
AcDbSymbolTable
 70
     6
  0
BLOCK_RECORD
  5
1F
102
{ACAD_XDICTIONARY
360
15D
102
}
330
1
100
AcDbSymbolTableRecord
100
AcDbBlockTableRecord
  2
*Model_Space
340
22
 70
     0
280
     1
281
     0
  0
BLOCK_RECORD
  5
58
330
1
100
AcDbSymbolTableRecord
100
AcDbBlockTableRecord
  2
*Paper_Space
340
59
 70
     0
280
     1
281
     0
  0
BLOCK_RECORD
  5
5D
330
1
100
AcDbSymbolTableRecord
100
AcDbBlockTableRecord
  2
*Paper_Space0
340
5E
 70
     0
280
     1
281
     0
  0
BLOCK_RECORD
  5
2C0
102
{ACAD_XDICTIONARY
360
39A
102
}
330
1
100
AcDbSymbolTableRecord
100
AcDbBlockTableRecord
  2
Lobby Logo file
340
0
 70
     1
280
     1
281
     0
1001
AcDbBlockRepETag
1070
     1
1071
       64
1001
AcDbDynamicBlockTrueName
1000
Lobby Logo file
1001
AcDbDynamicBlockGUID
1000
{17948EEA-E050-494B-8E2A-F92B36EC35A3}
  0
BLOCK_RECORD
  5
87E
330
1
100
AcDbSymbolTableRecord
100
AcDbBlockTableRecord
  2
-OG
340
0
310
28000000200000002000000001002000000000000010000001000000010000000000000000000000906DFB13302821FF302821FF302821FF302821FF302821FF302821FF302821FF302821FF302821FF302821FF302821FF302821FF302821FF302821FF302821FF302821FF302821FF302821FF302821FF302821FF302821
310
FF302821FF302821FF302821FF302821FF302821FF302821FF302821FF302821FF302821FF302821FF302821FF302821FF302821FF302821FF302821FF302821FF302821FF302821FF302821FF302821FF302821FF302821FF302821FF302821FF302821FF302821FF0000FFFF0000FFFF0000FFFF302821FF302821FF3028
310
21FF302821FF302821FF302821FF302821FF302821FF302821FF302821FF302821FF302821FF302821FF302821FF302821FF302821FF302821FF302821FF302821FF302821FF302821FF302821FF302821FF302821FF0000FFFF0000FFFF0000FFFF0000FFFF0000FFFF302821FF302821FF302821FF0000FFFF0000FFFF00
310
00FFFF302821FF302821FF302821FF302821FF302821FF302821FF302821FF302821FF302821FF302821FF302821FF302821FF302821FF302821FF302821FF302821FF302821FF302821FF302821FF0000FFFF0000FFFF302821FF302821FF302821FF302821FF302821FF302821FF302821FF302821FF302821FF302821FF
310
302821FF0000FFFF0000FFFF302821FF302821FF302821FF302821FF302821FF302821FF302821FF302821FF302821FF302821FF302821FF302821FF302821FF302821FF302821FF302821FF0000FFFF302821FF302821FF302821FF302821FF302821FF302821FF302821FF302821FF302821FF302821FF302821FF302821
310
FF302821FF302821FF302821FF0000FFFF0000FFFF302821FF302821FF302821FF302821FF302821FF302821FF302821FF302821FF302821FF302821FF302821FF302821FF302821FF0000FFFF302821FF302821FF302821FF302821FF302821FF302821FF302821FF302821FF302821FF302821FF302821FF302821FF3028
310
21FF302821FF302821FF302821FF302821FF302821FF0000FFFF302821FF302821FF302821FF302821FF302821FF302821FF302821FF302821FF302821FF302821FF302821FF0000FFFF302821FF302821FF302821FF302821FF302821FF302821FF302821FF302821FF302821FF302821FF302821FF302821FF302821FF30
310
2821FF302821FF302821FF302821FF302821FF302821FF302821FF0000FFFF302821FF302821FF302821FF302821FF302821FF302821FF302821FF302821FF302821FF0000FFFF302821FF302821FF302821FF302821FF302821FF302821FF302821FF302821FF302821FF302821FF302821FF302821FF302821FF302821FF
310
302821FF302821FF302821FF302821FF302821FF302821FF302821FF302821FF0000FFFF302821FF302821FF302821FF302821FF302821FF302821FF302821FF302821FF0000FFFF302821FF302821FF302821FF302821FF302821FF302821FF302821FF302821FF302821FF302821FF302821FF302821FF302821FF302821
310
FF302821FF302821FF302821FF302821FF302821FF302821FF302821FF302821FF0000FFFF302821FF302821FF302821FF302821FF302821FF302821FF302821FF0000FFFF302821FF302821FF302821FF302821FF302821FF302821FF302821FF302821FFFFFFFFFFFFFFFFFF302821FF302821FF302821FF302821FFFFFF
310
FFFFFFFFFFFF302821FF302821FF302821FF302821FF302821FF302821FF302821FF302821FF0000FFFF302821FF302821FF302821FF302821FF302821FF302821FF0000FFFF302821FF302821FF302821FF302821FF302821FF302821FF302821FFFFFFFFFFFFFFFFFFFFFFFFFFFFFFFFFF302821FF302821FFFFFFFFFFFF
310
FFFFFFFFFFFFFFFFFFFFFFFFFFFFFF302821FF302821FF302821FF302821FF302821FF302821FF302821FF0000FFFF302821FF302821FF302821FF302821FF0000FFFF302821FF302821FF302821FF302821FF302821FF302821FF302821FFFFFFFFFFFFFFFFFF302821FF302821FFFFFFFFFFFFFFFFFFFFFFFFFFFFFFFFFF
310
302821FFFFFFFFFFFFFFFFFFFFFFFFFF302821FF302821FF302821FF302821FF302821FF302821FF302821FF0000FFFF302821FF302821FF302821FF302821FF0000FFFF302821FF302821FF302821FF302821FF302821FF302821FF302821FFFFFFFFFFFFFFFFFF302821FF302821FF302821FFFFFFFFFFFFFFFFFFFFFFFF
310
FF302821FFFFFFFFFFFFFFFFFFFFFFFFFF302821FF302821FF302821FF302821FF302821FF302821FF302821FF0000FFFF302821FF302821FF302821FF302821FF0000FFFF302821FF302821FF302821FF302821FF302821FF302821FF302821FF302821FFFFFFFFFF302821FF302821FFFFFFFFFFFFFFFFFFFFFFFFFFFFFF
310
FFFF302821FF302821FF302821FFFFFFFFFF302821FF302821FF302821FF302821FF302821FF302821FF302821FF0000FFFF302821FF302821FF302821FF0000FFFF302821FF302821FF302821FF302821FF302821FF302821FF302821FF302821FF302821FFFFFFFFFFFFFFFFFFFFFFFFFFFFFFFFFFFFFFFFFFFFFFFFFFFF
310
FFFFFFFFFFFFFFFFFFFFFFFFFFFFFFFFFFFFFF302821FF302821FF302821FF302821FF302821FF302821FF302821FF302821FF0000FFFF302821FF302821FF0000FFFF302821FF302821FF302821FF302821FF302821FF302821FF302821FF302821FF302821FF302821FF302821FFFFFFFFFFFFFFFFFF302821FF302821FF
310
FFFFFFFFFFFFFFFFFFFFFFFFFFFFFFFF302821FF302821FF302821FF302821FF302821FF302821FF302821FF302821FF302821FF0000FFFF302821FF302821FF0000FFFF302821FF302821FF302821FF302821FF302821FF302821FF302821FF302821FF302821FF302821FF302821FF302821FF302821FF302821FF302821
310
FF302821FF302821FFFFFFFFFF302821FF302821FF302821FF302821FF302821FF302821FF302821FF302821FF302821FF302821FF0000FFFF302821FF302821FF0000FFFF302821FF302821FF302821FF302821FF302821FF302821FF302821FF302821FFFFFFFFFFFFFFFFFFFFFFFFFFFFFFFFFFFFFFFFFFFFFFFFFFFFFF
310
FFFFFFFFFFFFFFFFFFFFFFFFFFFFFFFFFFFFFFFFFFFF302821FF302821FF302821FF302821FF302821FF302821FF302821FF0000FFFF302821FF302821FF302821FF302821FF0000FFFF302821FF302821FF302821FF302821FF302821FF302821FF302821FFFFFFFFFFFFFFFFFFFFFFFFFFFFFFFFFFFFFFFFFFFFFFFFFFFF
310
FFFFFFFFFFFFFFFFFFFFFFFFFFFFFFFFFFFFFFFFFFFFFF302821FF302821FF302821FF302821FF302821FF302821FF302821FF0000FFFF302821FF302821FF302821FF302821FF0000FFFF302821FF302821FF302821FF302821FF302821FF302821FF302821FF302821FF302821FF302821FFFFFFFFFF302821FF302821FF
310
302821FF302821FFFFFFFFFF302821FF302821FF302821FF302821FF302821FF302821FF302821FF302821FF302821FF302821FF0000FFFF302821FF302821FF302821FF302821FF0000FFFF302821FF302821FF302821FFFFFFFFFFFFFFFFFFFFFFFFFFFFFFFFFFFFFFFFFFFFFFFFFFFFFFFFFFFFFFFFFFFFFFFFFFFFFFFF
310
FFFFFFFFFFFFFFFFFFFFFFFFFFFFFFFFFFFFFFFFFFFFFFFFFFFFFFFFFFFFFFFFFF302821FFFFFFFFFF302821FF302821FF302821FF0000FFFF302821FF302821FF302821FF302821FF302821FF0000FFFF302821FF302821FFFFFFFFFFFFFFFFFFFFFFFFFFFFFFFFFFFFFFFFFFFFFFFFFFFFFFFFFFFFFFFFFFFFFFFFFFFFFF
310
FFFFFFFFFFFFFFFFFFFFFFFFFFFFFFFFFFFFFFFFFFFFFFFFFFFFFFFFFFFFFFFFFFFFFFFFFFFFFFFFFFFF302821FF302821FF302821FF0000FFFF302821FF302821FF302821FF302821FF302821FF0000FFFF302821FF302821FFFFFFFFFFFFFFFFFFFFFFFFFFFFFFFFFF302821FF302821FF302821FF302821FF302821FF30
310
2821FFFFFFFFFFFFFFFFFF302821FF302821FF302821FF302821FF302821FF302821FFFFFFFFFFFFFFFFFF302821FF302821FF0000FFFF302821FF302821FF302821FF302821FF302821FF302821FF302821FF0000FFFF302821FF302821FF302821FF302821FF302821FF302821FF302821FF302821FF302821FF302821FF
310
302821FF302821FF302821FF302821FF302821FF302821FF302821FF302821FF302821FF302821FF302821FF302821FF0000FFFF302821FF302821FF302821FF302821FF302821FF302821FF302821FF302821FF0000FFFF302821FF302821FF302821FF302821FF302821FF302821FF302821FF302821FF302821FF302821
310
FF302821FF302821FF302821FF302821FF302821FF302821FF302821FF302821FF302821FF302821FF302821FF302821FF0000FFFF302821FF302821FF302821FF302821FF302821FF302821FF302821FF302821FF302821FF0000FFFF302821FF302821FF302821FF302821FF302821FF302821FF302821FF302821FF3028
310
21FF302821FF302821FF302821FF302821FF302821FF302821FF302821FF302821FF302821FF302821FF302821FF0000FFFF302821FF302821FF302821FF302821FF302821FF302821FF302821FF302821FF302821FF302821FF302821FF0000FFFF302821FF302821FF302821FF302821FF302821FF302821FF302821FF30
310
2821FF302821FF302821FF302821FF302821FF302821FF302821FF302821FF302821FF302821FF302821FF0000FFFF302821FF302821FF302821FF302821FF302821FF302821FF302821FF302821FF302821FF302821FF302821FF302821FF302821FF0000FFFF302821FF302821FF302821FF302821FF302821FF302821FF
310
302821FF302821FF302821FF302821FF302821FF302821FF302821FF302821FF302821FF0000FFFF0000FFFF302821FF302821FF302821FF302821FF302821FF302821FF302821FF302821FF302821FF302821FF302821FF302821FF302821FF302821FF302821FF0000FFFF0000FFFF302821FF302821FF302821FF302821
310
FF302821FF302821FF302821FF302821FF302821FF302821FF0000FFFF0000FFFF0000FFFF302821FF302821FF302821FF302821FF302821FF302821FF302821FF302821FF302821FF302821FF302821FF302821FF302821FF302821FF302821FF302821FF302821FF302821FF302821FF0000FFFF0000FFFF0000FFFF0000
310
FFFF0000FFFF302821FF302821FF302821FF0000FFFF0000FFFF302821FF302821FF302821FF302821FF302821FF302821FF302821FF302821FF302821FF302821FF302821FF302821FF302821FF302821FF302821FF302821FF302821FF302821FF302821FF302821FF302821FF302821FF302821FF302821FF302821FF30
310
2821FF302821FF0000FFFF0000FFFF0000FFFF302821FF302821FF302821FF302821FF302821FF302821FF302821FF302821FF302821FF302821FF302821FF302821FF302821FF302821FF302821FF302821FF302821FF302821FF302821FF302821FF302821FF302821FF302821FF302821FF302821FF302821FF302821FF
310
302821FF302821FF302821FF302821FF302821FF302821FF302821FF302821FF302821FF302821FF302821FF302821FF302821FF302821FF302821FF302821FF302821FF302821FF
 70
     1
280
     1
281
     0
  0
BLOCK_RECORD
  5
B40
102
{ACAD_XDICTIONARY
360
111B
102
}
330
1
100
AcDbSymbolTableRecord
100
AcDbBlockTableRecord
  2
laserbeds imperial
340
0
310
2800000020000000200000000100200000000000001000000100000001000000000000000000000001000000302821FF302821FF302821FF302821FF302821FF302821FF302821FF302821FF302821FF302821FF302821FF302821FF302821FF302821FF302821FF302821FF302821FF302821FF302821FF302821FF302821
310
FF302821FF302821FF302821FF302821FF302821FF302821FF302821FF302821FF302821FF302821FF302821FF302821FF302821FF302821FF302821FF302821FF302821FF302821FF302821FF302821FF302821FF302821FF302821FF302821FF302821FF302821FF302821FF302821FF302821FF302821FF302821FF3028
310
21FF302821FF302821FF302821FF302821FF302821FF302821FF302821FF302821FF302821FF302821FF302821FF302821FF302821FF302821FF302821FF302821FF302821FF302821FF302821FF302821FF302821FF302821FF302821FF302821FF302821FF302821FF302821FF302821FF302821FF302821FF302821FF30
310
2821FF302821FF302821FF302821FF302821FF302821FF302821FF302821FF302821FF302821FF302821FF302821FF302821FF302821FF302821FF302821FF302821FF302821FF302821FF302821FF302821FF302821FF302821FF302821FF302821FF302821FF302821FF302821FF302821FF302821FF302821FF302821FF
310
302821FF302821FF302821FF302821FF302821FF302821FF302821FF302821FF302821FF302821FF302821FF302821FF302821FF302821FF302821FF302821FF302821FF302821FF302821FF302821FF302821FF302821FF302821FF302821FF302821FF302821FF302821FF302821FF302821FF302821FF302821FF302821
310
FF302821FF302821FF302821FF302821FF302821FF302821FF302821FF302821FF302821FF302821FF302821FF302821FF302821FF302821FF302821FF302821FF302821FF302821FF302821FF302821FF302821FF302821FF302821FF302821FF302821FF302821FF302821FF302821FF302821FF302821FF302821FF3028
310
21FF302821FF302821FF302821FF302821FF302821FF302821FF302821FF302821FF302821FF302821FF302821FF302821FF302821FF302821FF302821FF302821FF302821FF302821FF302821FF302821FF302821FF302821FF302821FF302821FF302821FF302821FF302821FF302821FF302821FF302821FF302821FF30
310
2821FF302821FF302821FF302821FF302821FF302821FF302821FF302821FF302821FF302821FF302821FF302821FF302821FF302821FF302821FF302821FF302821FF302821FF302821FF302821FF302821FF302821FF302821FF302821FF302821FF302821FF302821FF302821FF302821FF302821FF302821FF302821FF
310
302821FF302821FF302821FF302821FF302821FF302821FF302821FF302821FF302821FF302821FF302821FF302821FF302821FF302821FF302821FF302821FFFFFFFFFFFFFFFFFFFFFFFFFFFFFFFFFFFFFFFFFFFFFFFFFFFFFFFFFFFFFFFFFFFFFFFFFFFFFFFFFFFFFFFFFFFFFFFFFFFFFFFFFFFFFFFFFFFFFFFFFFFFFFFF
310
FFFFFFFFFFFFFFFFFFFFFFFFFFFFFFFFFFFFFFFFFFFFFFFFFFFFFFFFFFFFFFFFFFFFFFFFFFFFFFFFFFFFFFFFFFFFFFFFFF302821FF302821FFFFFFFFFFFFFFFFFFFFFFFFFF302821FF302821FF302821FF302821FF302821FF302821FF302821FF302821FF302821FF302821FF302821FF302821FF302821FF302821FF3028
310
21FF302821FF302821FFFFFFFFFF302821FF302821FF302821FF302821FF302821FF302821FF302821FF302821FFFFFFFFFF302821FF302821FFFFFFFFFFFFFFFFFFFFFFFFFF302821FF302821FF302821FF302821FF302821FF302821FF302821FF302821FF302821FF302821FF302821FF302821FF302821FF302821FF30
310
2821FF302821FF302821FFFFFFFFFF302821FF302821FF302821FF302821FF302821FF302821FF302821FF302821FFFFFFFFFF302821FF302821FFFFFFFFFFFFFFFFFFFFFFFFFF302821FF302821FF302821FF302821FF302821FF302821FF302821FF302821FF302821FF302821FF302821FF302821FF302821FF302821FF
310
302821FF302821FF302821FFFFFFFFFF302821FF302821FF302821FF302821FF302821FF302821FF302821FF302821FFFFFFFFFF302821FF302821FFFFFFFFFFFFFFFFFFFFFFFFFF302821FF302821FF302821FF302821FF302821FF302821FF302821FF302821FF302821FF302821FF302821FF302821FF302821FF302821
310
FF302821FF302821FF302821FFFFFFFFFF302821FF302821FF302821FF302821FF302821FF302821FF302821FF302821FFFFFFFFFF302821FF302821FFFFFFFFFFFFFFFFFFFFFFFFFF302821FF302821FF302821FF302821FF302821FF302821FF302821FF302821FF302821FF302821FF302821FF302821FF302821FF3028
310
21FF302821FF302821FF302821FFFFFFFFFF302821FF302821FF302821FF302821FF302821FF302821FF302821FF302821FFFFFFFFFF302821FF302821FFFFFFFFFFFFFFFFFFFFFFFFFF302821FF302821FF302821FF302821FF302821FF302821FF302821FF302821FF302821FF302821FF302821FF302821FF302821FF30
310
2821FF302821FF302821FF302821FFFFFFFFFF302821FF302821FF302821FF302821FF302821FF302821FF302821FF302821FFFFFFFFFF302821FF302821FFFFFFFFFFFFFFFFFFFFFFFFFF302821FF302821FF302821FF302821FF302821FF302821FF302821FF302821FF302821FF302821FF302821FF302821FF302821FF
310
302821FF302821FF302821FF302821FFFFFFFFFF302821FF302821FF302821FF302821FF302821FF302821FF302821FF302821FFFFFFFFFF302821FF302821FFFFFFFFFFFFFFFFFFFFFFFFFF302821FF302821FF302821FF302821FF302821FF302821FF302821FF302821FF302821FF302821FF302821FF302821FF302821
310
FF302821FF302821FF302821FF302821FFFFFFFFFF302821FF302821FF302821FF302821FF302821FF302821FF302821FF302821FFFFFFFFFF302821FF302821FFFFFFFFFFFFFFFFFFFFFFFFFF302821FF302821FF302821FF302821FF302821FF302821FF302821FF302821FF302821FF302821FF302821FF302821FF3028
310
21FF302821FF302821FF302821FF302821FFFFFFFFFF302821FF302821FF302821FF302821FF302821FF302821FF302821FF302821FFFFFFFFFF302821FF302821FFFFFFFFFFFFFFFFFFFFFFFFFF302821FF302821FF302821FF302821FF302821FF302821FF302821FF302821FF302821FF302821FF302821FF302821FF30
310
2821FF302821FF302821FF302821FF302821FFFFFFFFFF302821FF302821FF302821FF302821FF302821FF302821FF302821FF302821FFFFFFFFFF302821FF302821FFFFFFFFFFFFFFFFFFFFFFFFFF302821FF302821FF302821FF302821FF302821FF302821FF302821FF302821FF302821FF302821FF302821FF302821FF
310
302821FF302821FF302821FF302821FF302821FFFFFFFFFF302821FF302821FF302821FF302821FF302821FF302821FF302821FF302821FFFFFFFFFF302821FF302821FFFFFFFFFFFFFFFFFFFFFFFFFF302821FF302821FF302821FF302821FF302821FF302821FF302821FF302821FF302821FF302821FF302821FF302821
310
FF302821FF302821FF302821FF302821FF302821FFFFFFFFFF302821FF302821FF302821FF302821FF302821FF302821FF302821FF302821FFFFFFFFFF302821FF302821FFFFFFFFFFFFFFFFFFFFFFFFFF302821FF302821FF302821FF302821FF302821FF302821FF302821FF302821FF302821FF302821FF302821FF3028
310
21FF302821FF302821FF302821FF302821FF302821FFFFFFFFFF302821FF302821FF302821FF302821FF302821FF302821FF302821FF302821FFFFFFFFFF302821FF302821FF302821FF302821FFFFFFFFFFFFFFFFFFFFFFFFFFFFFFFFFFFFFFFFFFFFFFFFFFFFFFFFFFFFFFFFFFFFFFFFFFFFFFFFFFFFFFFFFFFFFFFFFFFF
310
FFFFFFFFFFFFFFFFFFFFFFFFFFFFFFFFFFFFFFFFFFFFFFFFFFFFFFFFFFFFFFFFFFFFFFFFFFFFFFFFFFFFFFFFFFFFFFFFFFFFFFFFFFFFFFFFFFFFFFFFFFFFFF302821FF302821FF302821FF302821FFFFFFFFFFFFFFFFFFFFFFFFFFFFFFFFFFFFFFFFFFFFFFFFFFFFFFFFFFFFFFFFFFFFFFFFFFFFFFFFFFFFFFFFFFFFFFFFFF
310
FFFFFFFFFFFFFFFFFFFFFFFFFFFFFFFFFFFFFFFFFFFFFFFFFFFFFFFFFFFFFFFFFFFFFFFFFFFFFFFFFFFFFFFFFFFFFFFFFFFFFFFFFFFFFFFFFFFFFFFF302821FF302821FF302821FF302821FF302821FF302821FF302821FF302821FF302821FF302821FF302821FF302821FF302821FF302821FF302821FF302821FF302821
310
FF302821FF302821FF302821FF302821FF302821FF302821FF302821FF302821FF302821FF302821FF302821FF302821FF302821FF302821FF302821FF302821FF302821FF302821FF302821FF302821FF302821FF302821FF302821FF302821FF302821FF302821FF302821FF302821FF302821FF302821FF302821FF3028
310
21FF302821FF302821FF302821FF302821FF302821FF302821FF302821FF302821FF302821FF302821FF302821FF302821FF302821FF302821FF302821FF302821FF302821FF302821FF302821FF302821FF302821FF302821FF302821FF302821FF302821FF302821FF302821FF302821FF302821FF302821FF302821FF30
310
2821FF302821FF302821FF302821FF302821FF302821FF302821FF302821FF302821FF302821FF302821FF302821FF302821FF302821FF302821FF302821FF302821FF302821FF302821FF302821FF302821FF302821FF302821FF302821FF302821FF302821FF302821FF302821FF302821FF302821FF302821FF302821FF
310
302821FF302821FF302821FF302821FF302821FF302821FF302821FF302821FF302821FF302821FF302821FF302821FF302821FF302821FF302821FF302821FF302821FF302821FF302821FF302821FF302821FF302821FF302821FF302821FF302821FF302821FF302821FF302821FF302821FF302821FF302821FF302821
310
FF302821FF302821FF302821FF302821FF302821FF302821FF302821FF302821FF302821FF302821FF302821FF302821FF302821FF302821FF302821FF302821FF302821FF302821FF302821FF302821FF302821FF302821FF302821FF302821FF302821FF302821FF302821FF302821FF302821FF302821FF302821FF3028
310
21FF302821FF302821FF302821FF302821FF302821FF302821FF302821FF302821FF302821FF302821FF302821FF302821FF302821FF302821FF302821FF302821FF302821FF302821FF302821FF302821FF302821FF302821FF302821FF302821FF302821FF302821FF302821FF302821FF302821FF302821FF302821FF30
310
2821FF302821FF302821FF302821FF302821FF302821FF302821FF302821FF302821FF302821FF302821FF302821FF302821FF302821FF302821FF302821FF302821FF302821FF302821FF302821FF302821FF302821FF302821FF302821FF302821FF302821FF302821FF302821FF302821FF302821FF302821FF302821FF
310
302821FF302821FF302821FF302821FF302821FF302821FF302821FF302821FF302821FF302821FF302821FF302821FF302821FF302821FF302821FF302821FF302821FF302821FF
102
{BLKREFS
331
B89
102
}
 70
     1
280
     1
281
     0
1001
AcDbDynamicBlockGUID
1000
{DECF7551-83E9-E34B-AF5A-A993AE553CD5}
  0
BLOCK_RECORD
  5
CAD
102
{ACAD_XDICTIONARY
360
10C6
102
}
330
1
100
AcDbSymbolTableRecord
100
AcDbBlockTableRecord
  2
laserbeds metric
340
0
310
2800000020000000200000000100200000000000001000000100000001000000000000000000000000000000302821FF302821FF302821FF302821FF302821FF302821FF302821FF302821FF302821FF302821FF302821FF302821FF302821FF302821FF302821FF302821FF302821FF302821FF302821FF302821FF302821
310
FF302821FF302821FF302821FF302821FF302821FF302821FF302821FF302821FF302821FF302821FF302821FF302821FF302821FF302821FF302821FF302821FF302821FF302821FF302821FF302821FF302821FF302821FF302821FF302821FF302821FF302821FF302821FF302821FF302821FF302821FF302821FF3028
310
21FF302821FF302821FF302821FF302821FF302821FF302821FF302821FF302821FF302821FF302821FF302821FF302821FF302821FF302821FF302821FF302821FF302821FF302821FF302821FF302821FF302821FF302821FF302821FF302821FF302821FF302821FF302821FF302821FF302821FF302821FF302821FF30
310
2821FF302821FF302821FF302821FF302821FF302821FF302821FF302821FF302821FF302821FF302821FF302821FF302821FF302821FF302821FF302821FF302821FF302821FF302821FF302821FF302821FF302821FF302821FF302821FF302821FF302821FF302821FF302821FF302821FF302821FF302821FF302821FF
310
302821FF302821FF302821FF302821FF302821FF302821FF302821FF302821FF302821FF302821FF302821FF302821FF302821FF302821FF302821FF302821FF302821FF302821FF302821FF302821FF302821FF302821FF302821FF302821FF302821FF302821FF302821FF302821FF302821FF302821FF302821FF302821
310
FF302821FF302821FF302821FF302821FF302821FF302821FF302821FF302821FF302821FF302821FF302821FF302821FF302821FF302821FF302821FF302821FF302821FF302821FF302821FF302821FF302821FF302821FF302821FF302821FF302821FF302821FF302821FF302821FF302821FF302821FF302821FF3028
310
21FF302821FF302821FF302821FF302821FF302821FF302821FF302821FF302821FF302821FF302821FF302821FF302821FF302821FF302821FF302821FF302821FF302821FF302821FF302821FF302821FF302821FF302821FF302821FF302821FF302821FF302821FF302821FF302821FF302821FF302821FF302821FF30
310
2821FF302821FF302821FF302821FF302821FF302821FF302821FF302821FF302821FF302821FF302821FF302821FF302821FF302821FF302821FF302821FF302821FF302821FF302821FF302821FF302821FF302821FF302821FF302821FF302821FF302821FF302821FF302821FF302821FF302821FF302821FF302821FF
310
302821FF302821FF302821FF302821FF302821FF302821FF302821FF302821FF302821FF302821FF302821FF302821FF302821FF302821FF302821FF302821FF302821FF302821FF302821FF302821FF302821FF302821FF302821FF302821FF302821FF302821FF302821FF302821FF302821FF302821FF302821FF302821
310
FF302821FF302821FF302821FF302821FF302821FF302821FF302821FF302821FF302821FF302821FF302821FF302821FF302821FF302821FF302821FFFFFFFFFFFFFFFFFFFFFFFFFFFFFFFFFFFFFFFFFFFFFFFFFFFFFFFFFFFFFFFFFFFFFFFFFFFFFFFFFFFFFFFFFFFFFFFFFFFFFFFFFFFFFFFFFFFFFFFFFFFFFFFFFFFFFF
310
FFFFFFFFFFFFFFFFFFFFFFFFFFFFFFFFFFFFFFFFFFFFFFFFFFFFFFFFFFFFFFFFFFFFFFFFFFFFFFFFFFFFFFFFFFFFFFFFFFFF302821FF302821FF302821FFFFFFFFFF302821FF302821FF302821FF302821FF302821FF302821FF302821FF302821FF302821FF302821FF302821FF302821FF302821FF302821FF302821FF30
310
2821FFFFFFFFFF302821FF302821FF302821FF302821FF302821FF302821FF302821FFFFFFFFFF302821FF302821FF302821FF302821FF302821FF302821FFFFFFFFFF302821FF302821FF302821FF302821FF302821FF302821FF302821FF302821FF302821FF302821FF302821FF302821FF302821FF302821FF302821FF
310
302821FFFFFFFFFF302821FF302821FF302821FF302821FF302821FF302821FF302821FFFFFFFFFF302821FF302821FF302821FF302821FF302821FF302821FFFFFFFFFF302821FF302821FF302821FF302821FF302821FF302821FF302821FF302821FF302821FF302821FF302821FF302821FF302821FF302821FF302821
310
FF302821FFFFFFFFFF302821FF302821FF302821FF302821FF302821FF302821FF302821FFFFFFFFFF302821FF302821FF302821FF302821FF302821FF302821FFFFFFFFFF302821FF302821FF302821FF302821FF302821FF302821FF302821FF302821FF302821FF302821FF302821FF302821FF302821FF302821FF3028
310
21FF302821FFFFFFFFFF302821FF302821FF302821FF302821FF302821FF302821FF302821FFFFFFFFFF302821FF302821FF302821FF302821FF302821FF302821FFFFFFFFFF302821FF302821FF302821FF302821FF302821FF302821FF302821FF302821FF302821FF302821FF302821FF302821FF302821FF302821FF30
310
2821FF302821FFFFFFFFFF302821FF302821FF302821FF302821FF302821FF302821FF302821FFFFFFFFFF302821FF302821FF302821FF302821FF302821FF302821FFFFFFFFFF302821FF302821FF302821FF302821FF302821FF302821FF302821FF302821FF302821FF302821FF302821FF302821FF302821FF302821FF
310
302821FF302821FFFFFFFFFF302821FF302821FF302821FF302821FF302821FF302821FF302821FFFFFFFFFF302821FF302821FF302821FF302821FF302821FF302821FFFFFFFFFF302821FF302821FF302821FF302821FF302821FF302821FF302821FF302821FF302821FF302821FF302821FF302821FF302821FF302821
310
FF302821FF302821FFFFFFFFFF302821FF302821FF302821FF302821FF302821FF302821FF302821FFFFFFFFFF302821FF302821FF302821FF302821FF302821FF302821FFFFFFFFFF302821FF302821FF302821FF302821FF302821FF302821FF302821FF302821FF302821FF302821FF302821FF302821FF302821FF3028
310
21FF302821FF302821FFFFFFFFFF302821FF302821FF302821FF302821FF302821FF302821FF302821FFFFFFFFFF302821FF302821FF302821FF302821FF302821FF302821FFFFFFFFFF302821FF302821FF302821FF302821FF302821FF302821FF302821FF302821FF302821FF302821FF302821FF302821FF302821FF30
310
2821FF302821FF302821FFFFFFFFFF302821FF302821FF302821FF302821FF302821FF302821FF302821FFFFFFFFFF302821FF302821FF302821FF302821FF302821FF302821FFFFFFFFFF302821FF302821FF302821FF302821FF302821FF302821FF302821FF302821FF302821FF302821FF302821FF302821FF302821FF
310
302821FF302821FF302821FFFFFFFFFF302821FF302821FF302821FF302821FF302821FF302821FF302821FFFFFFFFFF302821FF302821FF302821FF302821FF302821FF302821FFFFFFFFFF302821FF302821FF302821FF302821FF302821FF302821FF302821FF302821FF302821FF302821FF302821FF302821FF302821
310
FF302821FF302821FF302821FFFFFFFFFF302821FF302821FF302821FF302821FF302821FF302821FF302821FFFFFFFFFF302821FF302821FF302821FF302821FF302821FF302821FFFFFFFFFFFFFFFFFFFFFFFFFFFFFFFFFFFFFFFFFFFFFFFFFFFFFFFFFFFFFFFFFFFFFFFFFFFFFFFFFFFFFFFFFFFFFFFFFFFFFFFFFFFFFF
310
FFFFFFFFFFFFFFFFFFFFFFFFFFFFFFFFFFFFFFFFFFFFFFFFFFFFFFFFFFFFFFFFFFFFFFFFFFFFFFFFFFFFFFFFFFFFFFFFFFFF302821FF302821FF302821FF302821FF302821FF302821FF302821FFFFFFFFFFFFFFFFFFFFFFFFFFFFFFFFFFFFFFFFFFFFFFFFFFFFFFFFFFFFFFFFFFFFFFFFFFFFFFFFFFFFFFFFFFFFFFFFFFFF
310
FFFFFFFFFFFFFFFFFFFFFFFFFFFFFFFFFFFFFFFFFFFFFFFFFFFFFFFFFFFFFFFFFFFFFFFFFFFFFFFFFFFFFFFFFFFFFFFFFFFFFF302821FF302821FF302821FF302821FF302821FF302821FF302821FF302821FF302821FF302821FF302821FF302821FF302821FF302821FF302821FF302821FF302821FF302821FF302821FF
310
302821FF302821FF302821FF302821FF302821FF302821FF302821FF302821FF302821FF302821FF302821FF302821FF302821FF302821FF302821FF302821FF302821FF302821FF302821FF302821FF302821FF302821FF302821FF302821FF302821FF302821FF302821FF302821FF302821FF302821FF302821FF302821
310
FF302821FF302821FF302821FF302821FF302821FF302821FF302821FF302821FF302821FF302821FF302821FF302821FF302821FF302821FF302821FF302821FF302821FF302821FF302821FF302821FF302821FF302821FF302821FF302821FF302821FF302821FF302821FF302821FF302821FF302821FF302821FF3028
310
21FF302821FF302821FF302821FF302821FF302821FF302821FF302821FF302821FF302821FF302821FF302821FF302821FF302821FF302821FF302821FF302821FF302821FF302821FF302821FF302821FF302821FF302821FF302821FF302821FF302821FF302821FF302821FF302821FF302821FF302821FF302821FF30
310
2821FF302821FF302821FF302821FF302821FF302821FF302821FF302821FF302821FF302821FF302821FF302821FF302821FF302821FF302821FF302821FF302821FF302821FF302821FF302821FF302821FF302821FF302821FF302821FF302821FF302821FF302821FF302821FF302821FF302821FF302821FF302821FF
310
302821FF302821FF302821FF302821FF302821FF302821FF302821FF302821FF302821FF302821FF302821FF302821FF302821FF302821FF302821FF302821FF302821FF302821FF302821FF302821FF302821FF302821FF302821FF302821FF302821FF302821FF302821FF302821FF302821FF302821FF302821FF302821
310
FF302821FF302821FF302821FF302821FF302821FF302821FF302821FF302821FF302821FF302821FF302821FF302821FF302821FF302821FF302821FF302821FF302821FF302821FF302821FF302821FF302821FF302821FF302821FF302821FF302821FF302821FF302821FF302821FF302821FF302821FF302821FF3028
310
21FF302821FF302821FF302821FF302821FF302821FF302821FF302821FF302821FF302821FF302821FF302821FF302821FF302821FF302821FF302821FF302821FF302821FF302821FF302821FF302821FF302821FF302821FF302821FF302821FF302821FF302821FF302821FF302821FF302821FF302821FF302821FF30
310
2821FF302821FF302821FF302821FF302821FF302821FF302821FF302821FF302821FF302821FF302821FF302821FF302821FF302821FF302821FF302821FF302821FF302821FF302821FF302821FF302821FF302821FF302821FF302821FF302821FF302821FF302821FF302821FF302821FF302821FF302821FF302821FF
310
302821FF302821FF302821FF302821FF302821FF302821FF302821FF302821FF302821FF302821FF302821FF302821FF302821FF302821FF302821FF302821FF302821FF302821FF
102
{BLKREFS
331
D22
102
}
 70
     1
280
     1
281
     0
1001
AcDbDynamicBlockGUID
1000
{7CB21BB6-2A32-AC42-A765-B7DB31F95C39}
  0
BLOCK_RECORD
  5
F0F
330
1
100
AcDbSymbolTableRecord
100
AcDbBlockTableRecord
  2
sample
340
0
310
28000000200000002000000001002000000000000010000001000000010000000000000000000000C0232030302821FF302821FF302821FF302821FF302821FF302821FF302821FF302821FF302821FF302821FF302821FF302821FF302821FF302821FF302821FF302821FF302821FF302821FF302821FF302821FF302821
310
FF302821FF302821FF302821FF302821FF302821FF302821FF302821FF302821FF302821FF302821FF302821FF302821FF302821FF302821FF0000FFFF0000FFFF0000FFFF0000FFFF0000FFFF0000FFFF0000FFFF0000FFFF0000FFFF0000FFFF0000FFFF0000FFFF0000FFFF0000FFFF0000FFFF0000FFFF0000FFFF0000
310
FFFF0000FFFF0000FFFF0000FFFF0000FFFF0000FFFF0000FFFF0000FFFF0000FFFF302821FF302821FF302821FF302821FF302821FF0000FFFF0000FFFF302821FF302821FF302821FF302821FF302821FF302821FF302821FF302821FF302821FF302821FF302821FF302821FF302821FF302821FF302821FF302821FF30
310
2821FF302821FF302821FF302821FF302821FF302821FF302821FF302821FF0000FFFF0000FFFF302821FF302821FF302821FF0000FFFF0000FFFF302821FF302821FF302821FF302821FF302821FF302821FF302821FF302821FF302821FF302821FF302821FF302821FF302821FF302821FF302821FF302821FF302821FF
310
302821FF302821FF302821FF302821FF302821FF302821FF302821FF302821FF302821FF0000FFFF0000FFFF302821FF302821FF0000FFFF302821FF302821FF302821FF302821FF302821FF302821FF302821FF302821FF302821FF302821FF302821FF302821FF302821FF302821FF302821FF302821FF302821FF302821
310
FF302821FF302821FF302821FF302821FF302821FF302821FF302821FF302821FF302821FF302821FF0000FFFF302821FF302821FF0000FFFF302821FF302821FF302821FF302821FF302821FF302821FF302821FF302821FF302821FF302821FF302821FF302821FF302821FF302821FF302821FF302821FF302821FF3028
310
21FFFFFFFFFF302821FF302821FF302821FF302821FF302821FF302821FF302821FF302821FF302821FF0000FFFF302821FF302821FF0000FFFF302821FF302821FF302821FF302821FF302821FF302821FFFFFFFFFFFFFFFFFFFFFFFFFFFFFFFFFFFFFFFFFFFFFFFFFFFFFFFFFFFFFFFFFFFFFFFFFFFFFFFFFFFFFFFFFFFF
310
FFFFFFFFFFFFFFFFFFFFFFFFFFFFFFFFFFFFFF302821FF302821FF302821FF302821FF302821FF302821FF0000FFFF302821FF302821FF0000FFFF302821FF302821FF302821FF302821FF302821FF302821FFFFFFFFFFFFFFFFFFFFFFFFFFFFFFFFFFFFFFFFFFFFFFFFFFFFFFFFFFFFFFFFFFFFFFFFFFFFFFFFFFFFFFFFFF
310
FFFFFFFFFFFFFFFFFFFFFFFFFFFFFFFFFFFFFFFF302821FF302821FF302821FF302821FF302821FF302821FF0000FFFF302821FF302821FF0000FFFF302821FF302821FF302821FF302821FF302821FF302821FFFFFFFFFFFFFFFFFFFFFFFFFF302821FF302821FFFFFFFFFFFFFFFFFFFFFFFFFF302821FF302821FF302821
310
FF302821FF302821FF302821FFFFFFFFFF302821FF302821FF302821FF302821FF302821FF302821FF302821FF0000FFFF302821FF302821FF0000FFFF302821FF302821FF302821FF302821FF302821FF302821FF302821FF302821FF302821FF302821FF302821FF302821FF302821FF302821FF302821FF302821FF3028
310
21FF302821FF302821FF302821FF302821FF302821FF302821FF302821FF302821FF302821FF302821FF302821FF0000FFFF302821FF302821FF0000FFFF302821FF302821FF302821FF302821FF302821FF302821FF302821FF302821FF302821FF302821FF302821FF302821FFFFFFFFFFFFFFFFFFFFFFFFFFFFFFFFFF30
310
2821FF302821FF302821FF302821FF302821FF302821FF302821FF302821FF302821FF302821FF302821FF302821FF0000FFFF302821FF302821FF0000FFFF302821FF302821FF302821FF302821FF302821FF302821FF302821FF302821FF302821FF302821FF302821FFFFFFFFFFFFFFFFFF0000FFFF0000FFFFFFFFFFFF
310
FFFFFFFF302821FF302821FF302821FF302821FF302821FF302821FF302821FF302821FF302821FF302821FF302821FF0000FFFF302821FF302821FF0000FFFF302821FF302821FF302821FF302821FF302821FF302821FF302821FF302821FF302821FF302821FF302821FFFFFFFFFF0000FFFF302821FF302821FF0000FF
310
FFFFFFFFFF302821FF302821FF302821FF302821FF302821FF302821FF302821FF302821FF302821FF302821FF302821FF0000FFFF302821FF302821FF0000FFFF302821FF302821FF302821FF302821FF302821FF302821FF302821FF302821FF302821FF302821FF302821FFFFFFFFFF0000FFFF0000FFFFFF0000FFFFFF
310
FFFFFFFFFFFF302821FF302821FF302821FF302821FF302821FF302821FF302821FF302821FF302821FF302821FF302821FF0000FFFF302821FF302821FF0000FFFF302821FF302821FF302821FF302821FF302821FF302821FF302821FF302821FF302821FF302821FF302821FF302821FFFFFFFFFFFFFFFFFFFF0000FFFF
310
FFFFFF302821FF302821FF302821FF302821FF302821FF302821FF302821FF302821FF302821FF302821FF302821FF302821FF0000FFFF302821FF302821FF0000FFFF302821FF302821FF302821FF302821FF302821FF302821FF302821FF302821FF302821FF302821FF302821FF302821FF302821FF302821FFFF0000FF
310
302821FF302821FF302821FF302821FF302821FF302821FF302821FF302821FF302821FF302821FF302821FF302821FF302821FF0000FFFF302821FF302821FF0000FFFF302821FF302821FF302821FF302821FF302821FF302821FF302821FF302821FF302821FF302821FF302821FF302821FF302821FF302821FFFF0000
310
FF302821FF302821FF302821FF302821FF302821FF302821FF302821FF302821FF302821FF302821FF302821FF302821FF302821FF0000FFFF302821FF302821FF0000FFFF302821FF302821FF302821FF302821FF302821FF302821FF302821FFFFFFFFFFFFFFFFFFFFFFFFFFFFFFFFFFFFFFFFFF302821FF302821FFFF00
310
00FF302821FFFFFFFFFFFFFFFFFFFFFFFFFFFFFFFFFFFFFFFFFF302821FF302821FF302821FF302821FF302821FF302821FF302821FF0000FFFF302821FF302821FF0000FFFF302821FF302821FF302821FF302821FF302821FF302821FFFFFFFFFF0000FFFF0000FFFF0000FFFF0000FFFFFFFFFFFFFFFFFFFF302821FFFF
310
0000FFFFFFFFFFFFFFFFFF0000FFFF0000FFFF0000FFFF0000FFFFFFFFFFFF302821FF302821FF302821FF302821FF302821FF302821FF0000FFFF302821FF302821FF0000FFFF302821FF302821FF302821FF302821FF302821FFFFFFFFFFFFFFFFFF0000FFFF302821FF302821FF302821FF0000FFFFFFFFFFFF302821FF
310
FF0000FFFFFFFFFF0000FFFF302821FF302821FF302821FF0000FFFFFFFFFFFF302821FF302821FF302821FF302821FF302821FF302821FF0000FFFF302821FF302821FF0000FFFF302821FF302821FF302821FF302821FF302821FFFFFFFFFF0000FFFF0000FFFF302821FF302821FF302821FF0000FFFFFFFFFFFF302821
310
FFFF0000FFFFFFFFFF0000FFFF302821FF302821FF302821FF302821FF0000FFFFFFFFFFFF302821FF302821FF302821FF302821FF302821FF0000FFFF302821FF302821FF0000FFFF302821FF302821FF302821FF302821FF302821FFFFFFFFFF302821FF0000FFFF302821FF302821FF302821FF0000FFFFFFFFFFFF3028
310
21FFFF0000FFFFFFFFFF0000FFFF302821FF302821FF302821FF0000FFFF0000FFFFFFFFFFFF302821FF302821FF302821FF302821FF302821FF0000FFFF302821FF302821FF0000FFFF302821FF302821FF302821FF302821FF302821FF302821FFFFFFFFFF0000FFFF0000FFFF0000FFFF0000FFFF0000FFFFFFFFFFFF30
310
2821FFFF0000FFFFFFFFFF0000FFFF0000FFFF302821FF0000FFFF0000FFFFFFFFFFFF302821FF302821FF302821FF302821FF302821FF302821FF0000FFFF302821FF302821FF0000FFFF302821FF302821FF302821FF302821FF302821FF302821FFFFFFFFFFFFFFFFFF0000FFFFFF0000FFFFFFFFFFFFFFFFFF302821FF
310
302821FFFF0000FF302821FFFFFFFFFF302821FFFF0000FF302821FFFFFFFFFFFFFFFFFF302821FF302821FF302821FF302821FF302821FF302821FF0000FFFF302821FF302821FF0000FFFF302821FF302821FF302821FF302821FF302821FF302821FF302821FF302821FFFFFFFFFFFF0000FFFFFFFFFF302821FF302821
310
FF302821FFFF0000FF302821FF302821FFFFFFFFFFFF0000FFFFFFFFFF302821FF302821FF302821FF302821FF302821FF302821FF302821FF302821FF0000FFFF302821FF302821FF0000FFFF302821FF302821FF302821FF302821FF302821FF302821FF302821FF302821FF302821FFFF0000FF302821FF302821FF3028
310
21FF302821FFFF0000FF302821FF302821FF302821FFFF0000FF302821FF302821FF302821FF302821FF302821FF302821FF302821FF302821FF302821FF0000FFFF302821FF302821FF0000FFFF302821FF302821FF302821FF302821FF302821FF302821FF302821FF302821FF302821FFFF0000FF302821FF302821FF30
310
2821FF302821FFFF0000FF302821FF302821FF302821FFFF0000FF302821FF302821FF302821FF302821FF302821FF302821FF302821FF302821FF302821FF0000FFFF302821FF302821FF0000FFFF302821FF302821FF302821FF302821FF302821FF302821FF302821FF302821FF302821FFFF0000FFFF0000FFFF0000FF
310
FF0000FFFF0000FFFF0000FFFF0000FFFF0000FFFF0000FFFF0000FF302821FF302821FF302821FF302821FF302821FF302821FF302821FF302821FF302821FF0000FFFF302821FF302821FF0000FFFF0000FFFF302821FF302821FF302821FF302821FF302821FF302821FF302821FF302821FF302821FF302821FF302821
310
FF302821FF302821FF302821FF302821FF302821FF302821FF302821FF302821FF302821FF302821FF302821FF302821FF302821FF302821FF302821FF0000FFFF0000FFFF302821FF302821FF302821FF0000FFFF0000FFFF302821FF302821FF302821FF302821FF302821FF302821FF302821FF302821FF302821FF3028
310
21FF302821FF302821FF302821FF302821FF302821FF302821FF302821FF302821FF302821FF302821FF302821FF302821FF302821FF302821FF0000FFFF0000FFFF302821FF302821FF302821FF302821FF302821FF0000FFFF0000FFFF0000FFFF0000FFFF0000FFFF0000FFFF0000FFFF0000FFFF0000FFFF0000FFFF00
310
00FFFF0000FFFF0000FFFF0000FFFF0000FFFF0000FFFF0000FFFF0000FFFF0000FFFF0000FFFF0000FFFF0000FFFF0000FFFF0000FFFF0000FFFF0000FFFF302821FF302821FF302821FF302821FF302821FF302821FF302821FF302821FF302821FF302821FF302821FF302821FF302821FF302821FF302821FF302821FF
310
302821FF302821FF302821FF302821FF302821FF302821FF302821FF302821FF302821FF302821FF302821FF302821FF302821FF302821FF302821FF302821FF302821FF302821FF
102
{BLKREFS
331
F1E
331
F1F
102
}
 70
     1
280
     1
281
     0
  0
ENDTAB
  0
ENDSEC
  0
SECTION
  2
BLOCKS
  0
BLOCK
  5
20
330
1F
100
AcDbEntity
  8
0
100
AcDbBlockBegin
  2
*Model_Space
 70
     0
 10
0.0
 20
0.0
 30
0.0
  3
*Model_Space
  1

  0
ENDBLK
  5
21
330
1F
100
AcDbEntity
  8
0
100
AcDbBlockEnd
  0
BLOCK
  5
5A
330
58
100
AcDbEntity
 67
     1
  8
0
100
AcDbBlockBegin
  2
*Paper_Space
 70
     0
 10
0.0
 20
0.0
 30
0.0
  3
*Paper_Space
  1

  0
ENDBLK
  5
5B
330
58
100
AcDbEntity
 67
     1
  8
0
100
AcDbBlockEnd
  0
BLOCK
  5
5F
330
5D
100
AcDbEntity
 67
     1
  8
0
100
AcDbBlockBegin
  2
*Paper_Space0
 70
     0
 10
0.0
 20
0.0
 30
0.0
  3
*Paper_Space0
  1

  0
ENDBLK
  5
60
330
5D
100
AcDbEntity
 67
     1
  8
0
100
AcDbBlockEnd
  0
BLOCK
  5
300
330
2C0
100
AcDbEntity
  8
0
100
AcDbBlockBegin
  2
Lobby Logo file
 70
     0
 10
0.0
 20
0.0
 30
0.0
  3
Lobby Logo file
  1

  0
LINE
  5
35B
102
{ACAD_REACTORS
330
3FD
102
}
330
2C0
100
AcDbEntity
  8
0
  6
Continuous
 62
     7
370
    15
100
AcDbLine
 10
0.037755869038719
 20
-0.2082225601412801
 30
0.0
 11
0.0904672505730986
 21
-0.2082225601412801
 31
0.0
1001
AcDbBlockRepETag
1070
     1
1071
        0
1005
35B
  0
LINE
  5
35C
102
{ACAD_REACTORS
330
3FD
102
}
330
2C0
100
AcDbEntity
  8
0
  6
Continuous
 62
     7
370
    15
100
AcDbLine
 10
0.0904672505730986
 20
-0.2082225601412801
 30
0.0
 11
0.0904672505730986
 21
-0.3792196658288347
 31
0.0
1001
AcDbBlockRepETag
1070
     1
1071
        1
1005
35C
  0
ARC
  5
35D
102
{ACAD_REACTORS
330
3FD
102
}
330
2C0
100
AcDbEntity
  8
0
  6
Continuous
 62
     7
370
    15
100
AcDbCircle
 10
0.1369780684413442
 20
-0.3792196658288347
 30
0.0
 40
0.0465108178678275
100
AcDbArc
 50
180.0
 51
270.0
1001
AcDbBlockRepETag
1070
     1
1071
        2
1005
35D
  0
LINE
  5
35E
102
{ACAD_REACTORS
330
3FD
102
}
330
2C0
100
AcDbEntity
  8
0
  6
Continuous
 62
     7
370
    15
100
AcDbLine
 10
0.1511876852272849
 20
-0.4257304836955314
 30
0.0
 11
0.1369780684413442
 21
-0.4257304836955314
 31
0.0
1001
AcDbBlockRepETag
1070
     1
1071
        3
1005
35E
  0
ARC
  5
35F
102
{ACAD_REACTORS
330
3FD
102
}
330
2C0
100
AcDbEntity
  8
0
  6
Continuous
 62
     7
370
    15
100
AcDbCircle
 10
0.1511876852272849
 20
-0.3792196658288347
 30
0.0
 40
0.0465108178678275
100
AcDbArc
 50
270.0
 51
0.0
1001
AcDbBlockRepETag
1070
     1
1071
        4
1005
35F
  0
LINE
  5
360
102
{ACAD_REACTORS
330
3FD
102
}
330
2C0
100
AcDbEntity
  8
0
  6
Continuous
 62
     7
370
    15
100
AcDbLine
 10
0.1976985030955305
 20
-0.2082225601412801
 30
0.0
 11
0.1976985030955305
 21
-0.3792196658288347
 31
0.0
1001
AcDbBlockRepETag
1070
     1
1071
        5
1005
360
  0
LINE
  5
361
102
{ACAD_REACTORS
330
3FD
102
}
330
2C0
100
AcDbEntity
  8
0
  6
Continuous
 62
     7
370
    15
100
AcDbLine
 10
0.2504098846299101
 20
-0.2082225601412801
 30
0.0
 11
0.1976985030955305
 21
-0.2082225601412801
 31
0.0
1001
AcDbBlockRepETag
1070
     1
1071
        6
1005
361
  0
LINE
  5
362
102
{ACAD_REACTORS
330
3FD
102
}
330
2C0
100
AcDbEntity
  8
0
  6
Continuous
 62
     7
370
    15
100
AcDbLine
 10
0.2504098846299101
 20
-0.2082225601412801
 30
0.0
 11
0.2504098846299101
 21
-0.3860319820314544
 31
0.0
1001
AcDbBlockRepETag
1070
     1
1071
        7
1005
362
  0
ARC
  5
363
102
{ACAD_REACTORS
330
3FD
102
}
330
2C0
100
AcDbEntity
  8
0
  6
Continuous
 62
     7
370
    15
100
AcDbCircle
 10
0.1545062040709766
 20
-0.3860319820314544
 30
0.0
 40
0.0959036805586754
100
AcDbArc
 50
270.0
 51
0.0
1001
AcDbBlockRepETag
1070
     1
1071
        8
1005
363
  0
LINE
  5
364
102
{ACAD_REACTORS
330
3FD
102
}
330
2C0
100
AcDbEntity
  8
0
  6
Continuous
 62
     7
370
    15
100
AcDbLine
 10
0.1545062040709766
 20
-0.4819356625903879
 30
0.0
 11
0.1336595495976596
 21
-0.4819356625903879
 31
0.0
1001
AcDbBlockRepETag
1070
     1
1071
        9
1005
364
  0
ARC
  5
365
102
{ACAD_REACTORS
330
3FD
102
}
330
2C0
100
AcDbEntity
  8
0
  6
Continuous
 62
     7
370
    15
100
AcDbCircle
 10
0.1336595495976596
 20
-0.3860319820314544
 30
0.0
 40
0.0959036805586755
100
AcDbArc
 50
180.0
 51
270.0
1001
AcDbBlockRepETag
1070
     1
1071
       10
1005
365
  0
LINE
  5
366
102
{ACAD_REACTORS
330
3FD
102
}
330
2C0
100
AcDbEntity
  8
0
  6
Continuous
 62
     7
370
    15
100
AcDbLine
 10
0.037755869038719
 20
-0.2082225601412801
 30
0.0
 11
0.037755869038719
 21
-0.3860319820314544
 31
0.0
1001
AcDbBlockRepETag
1070
     1
1071
       11
1005
366
  0
LINE
  5
367
102
{ACAD_REACTORS
330
3FD
102
}
330
2C0
100
AcDbEntity
  8
0
  6
Continuous
 62
     7
370
    15
100
AcDbLine
 10
0.3711980749611996
 20
-0.3636719777386759
 30
0.0
 11
0.3711980749611996
 21
-0.429977243199275
 31
0.0
1001
AcDbBlockRepETag
1070
     1
1071
       12
1005
367
  0
LINE
  5
368
102
{ACAD_REACTORS
330
3FD
102
}
330
2C0
100
AcDbEntity
  8
0
  6
Continuous
 62
     7
370
    15
100
AcDbLine
 10
0.31848669342682
 20
-0.481287052499404
 30
0.0
 11
0.4644009614264136
 21
-0.481287052499404
 31
0.0
1001
AcDbBlockRepETag
1070
     1
1071
       13
1005
368
  0
LINE
  5
369
102
{ACAD_REACTORS
330
3FD
102
}
330
2C0
100
AcDbEntity
  8
0
  6
Continuous
 62
     7
370
    15
100
AcDbLine
 10
0.3711980749611996
 20
-0.3210826844200696
 30
0.0
 11
0.3711980749611996
 21
-0.2611168890256224
 31
0.0
1001
AcDbBlockRepETag
1070
     1
1071
       14
1005
369
  0
LINE
  5
36A
102
{ACAD_REACTORS
330
3FD
102
}
330
2C0
100
AcDbEntity
  8
0
  6
Continuous
 62
     7
370
    15
100
AcDbLine
 10
0.31848669342682
 20
-0.2082225601412801
 30
0.0
 11
0.31848669342682
 21
-0.481287052499404
 31
0.0
1001
AcDbBlockRepETag
1070
     1
1071
       15
1005
36A
  0
LINE
  5
36B
102
{ACAD_REACTORS
330
3FD
102
}
330
2C0
100
AcDbEntity
  8
0
  6
Continuous
 62
     7
370
    15
100
AcDbLine
 10
0.31848669342682
 20
-0.2082225601412801
 30
0.0
 11
0.4618193068995211
 21
-0.2082225601412801
 31
0.0
1001
AcDbBlockRepETag
1070
     1
1071
       16
1005
36B
  0
SPLINE
  5
36C
102
{ACAD_REACTORS
330
3FD
102
}
330
2C0
100
AcDbEntity
  8
0
  6
Continuous
 62
     7
370
    15
100
AcDbSpline
210
0.0
220
0.0
230
1.0
 70
     8
 71
     3
 72
    12
 73
     8
 74
     0
 42
0.00000001
 43
0.0000000001
 40
0.0
 40
0.0
 40
0.0
 40
0.0
 40
0.3170506573553823
 40
0.5374505880488356
 40
0.7530955696058599
 40
0.8730726948211168
 40
1.0
 40
1.0
 40
1.0
 40
1.0
 10
0.4618193069002885
 20
-0.2082225601410812
 30
0.0
 10
0.4832229411633051
 20
-0.2082225601410812
 30
0.0
 10
0.5122020511962262
 20
-0.2240796728726266
 30
0.0
 10
0.5327690169982305
 20
-0.2653464695212406
 30
0.0
 10
0.5348229192948822
 20
-0.2982496392942764
 30
0.0
 10
0.5304093704359119
 20
-0.3256185182317921
 30
0.0
 10
0.5206638080240183
 20
-0.337268147676042
 30
0.0
 10
0.5148960396757119
 20
-0.3418900590664649
 30
0.0
1001
AcDbBlockRepETag
1070
     1
1071
       17
1005
36C
  0
SPLINE
  5
36D
102
{ACAD_REACTORS
330
3FD
102
}
330
2C0
100
AcDbEntity
  8
0
  6
Continuous
 62
     7
370
    15
100
AcDbSpline
210
0.0
220
0.0
230
1.0
 70
     8
 71
     3
 72
    13
 73
     9
 74
     0
 42
0.00000001
 43
0.0000000001
 40
0.0
 40
0.0
 40
0.0
 40
0.0
 40
0.1499937447831298
 40
0.3440053584915632
 40
0.5560462156957326
 40
0.7075565770547074
 40
0.819812117413684
 40
1.0
 40
1.0
 40
1.0
 40
1.0
 10
0.5148960396757119
 20
-0.3418900590664649
 30
0.0
 10
0.5219621559188994
 20
-0.3476946486199779
 30
0.0
 10
0.5330229566526868
 20
-0.3667764468584949
 30
0.0
 10
0.5333292667110286
 20
-0.4007464841991677
 30
0.0
 10
0.5337752029793848
 20
-0.4362152745816133
 30
0.0
 10
0.5145621827870599
 20
-0.4595812368249952
 30
0.0
 10
0.4938779109781209
 20
-0.4766760280423839
 30
0.0
 10
0.4746662489952911
 20
-0.4812870524989421
 30
0.0
 10
0.4644009614265841
 20
-0.4812870524989421
 30
0.0
1001
AcDbBlockRepETag
1070
     1
1071
       18
1005
36D
  0
LINE
  5
36E
102
{ACAD_REACTORS
330
3FD
102
}
330
2C0
100
AcDbEntity
  8
0
  6
Continuous
 62
     7
370
    15
100
AcDbLine
 10
0.3711980749611996
 20
-0.3210826844200696
 30
0.0
 11
0.4522637993351922
 21
-0.3210826844200696
 31
0.0
1001
AcDbBlockRepETag
1070
     1
1071
       19
1005
36E
  0
SPLINE
  5
36F
102
{ACAD_REACTORS
330
3FD
102
}
330
2C0
100
AcDbEntity
  8
0
  6
Continuous
 62
     7
370
    15
100
AcDbSpline
210
0.0
220
0.0
230
1.0
 70
     8
 71
     3
 72
    15
 73
    11
 74
     0
 42
0.00000001
 43
0.0000000001
 40
0.0
 40
0.0
 40
0.0
 40
0.0
 40
0.1316371245922375
 40
0.2620996846381567
 40
0.3516505711513103
 40
0.521963022624523
 40
0.6363979990659047
 40
0.7568546857522218
 40
0.8372950583671595
 40
1.0
 40
1.0
 40
1.0
 40
1.0
 10
0.4522637993353911
 20
-0.261116889026141
 30
0.0
 10
0.4564774882539169
 20
-0.261116889026141
 30
0.0
 10
0.4640153076074541
 20
-0.2630998953650234
 30
0.0
 10
0.472765580944845
 20
-0.2697804729118829
 30
0.0
 10
0.4783408065607305
 20
-0.2804578591883171
 30
0.0
 10
0.4777957808290481
 20
-0.2919035713674063
 30
0.0
 10
0.4786284730111632
 20
-0.304328410868969
 30
0.0
 10
0.4731661479770466
 20
-0.3126752654910518
 30
0.0
 10
0.4650087856427234
 20
-0.3200966836835164
 30
0.0
 10
0.4570569378131069
 20
-0.321082684420702
 30
0.0
 10
0.4522637993353911
 20
-0.321082684420702
 30
0.0
1001
AcDbBlockRepETag
1070
     1
1071
       20
1005
36F
  0
LINE
  5
370
102
{ACAD_REACTORS
330
3FD
102
}
330
2C0
100
AcDbEntity
  8
0
  6
Continuous
 62
     7
370
    15
100
AcDbLine
 10
0.3711980749611996
 20
-0.2611168890256224
 30
0.0
 11
0.4522637993351922
 21
-0.2611168890256224
 31
0.0
1001
AcDbBlockRepETag
1070
     1
1071
       21
1005
370
  0
LINE
  5
371
102
{ACAD_REACTORS
330
3FD
102
}
330
2C0
100
AcDbEntity
  8
0
  6
Continuous
 62
     7
370
    15
100
AcDbLine
 10
0.3711980749611996
 20
-0.429977243199275
 30
0.0
 11
0.4513953449023305
 21
-0.429977243199275
 31
0.0
1001
AcDbBlockRepETag
1070
     1
1071
       22
1005
371
  0
SPLINE
  5
372
102
{ACAD_REACTORS
330
3FD
102
}
330
2C0
100
AcDbEntity
  8
0
  6
Continuous
 62
     7
370
    15
100
AcDbSpline
210
0.0
220
0.0
230
1.0
 70
     8
 71
     3
 72
    13
 73
     9
 74
     0
 42
0.00000001
 43
0.0000000001
 40
0.0
 40
0.0
 40
0.0
 40
0.0
 40
0.2015242104882241
 40
0.2726344462464075
 40
0.5425269744844398
 40
0.7661815815875988
 40
0.8752669755935094
 40
1.0
 40
1.0
 40
1.0
 40
1.0
 10
0.4490004406301083
 20
-0.363671977739024
 30
0.0
 10
0.4581147209057619
 20
-0.363671977739024
 30
0.0
 10
0.4661797755300654
 20
-0.3632894585458217
 30
0.0
 10
0.4778561997790689
 20
-0.3787177531191901
 30
0.0
 10
0.4777748734166849
 20
-0.3979991769849178
 30
0.0
 10
0.4767390590231387
 20
-0.4198053395358344
 30
0.0
 10
0.4638291688530032
 20
-0.4296662456762022
 30
0.0
 10
0.4550351307132204
 20
-0.4299772431990832
 30
0.0
 10
0.4513953449016697
 20
-0.4299772431990832
 30
0.0
1001
AcDbBlockRepETag
1070
     1
1071
       23
1005
372
  0
LINE
  5
373
102
{ACAD_REACTORS
330
3FD
102
}
330
2C0
100
AcDbEntity
  8
0
  6
Continuous
 62
     7
370
    15
100
AcDbLine
 10
0.3711980749611996
 20
-0.3636719777386759
 30
0.0
 11
0.4490004406298809
 21
-0.3636719777386759
 31
0.0
1001
AcDbBlockRepETag
1070
     1
1071
       24
1005
373
  0
LINE
  5
374
102
{ACAD_REACTORS
330
3FD
102
}
330
2C0
100
AcDbEntity
  8
0
  6
Continuous
 62
     7
370
    15
100
AcDbLine
 10
0.2480491406984697
 20
-0.0182501934015207
 30
0.0
 11
0.5
 21
0.2330075584823845
 31
0.0
1001
AcDbBlockRepETag
1070
     1
1071
       25
1005
374
  0
LINE
  5
375
102
{ACAD_REACTORS
330
3FD
102
}
330
2C0
100
AcDbEntity
  8
0
  6
Continuous
 62
     7
370
    15
100
AcDbLine
 10
-0.2487422481145458
 20
-0.0182501934015207
 30
0.0
 11
0.2480491406984697
 21
-0.0182501934015207
 31
0.0
1001
AcDbBlockRepETag
1070
     1
1071
       26
1005
375
  0
LINE
  5
376
102
{ACAD_REACTORS
330
3FD
102
}
330
2C0
100
AcDbEntity
  8
0
  6
Continuous
 62
     7
370
    15
100
AcDbLine
 10
0.2519464398382212
 20
0.4810611186441634
 30
0.0
 11
-0.2487422481145458
 21
-0.0182501934015207
 31
0.0
1001
AcDbBlockRepETag
1070
     1
1071
       27
1005
376
  0
LINE
  5
377
102
{ACAD_REACTORS
330
3FD
102
}
330
2C0
100
AcDbEntity
  8
0
  6
Continuous
 62
     7
370
    15
100
AcDbLine
 10
0.2519464398382212
 20
0.2330075584823845
 30
0.0
 11
0.2519464398382212
 21
0.4810611186441634
 31
0.0
1001
AcDbBlockRepETag
1070
     1
1071
       28
1005
377
  0
LINE
  5
378
102
{ACAD_REACTORS
330
3FD
102
}
330
2C0
100
AcDbEntity
  8
0
  6
Continuous
 62
     7
370
    15
100
AcDbLine
 10
0.5
 20
0.2330075584823845
 30
0.0
 11
0.2519464398382212
 21
0.2330075584823845
 31
0.0
1001
AcDbBlockRepETag
1070
     1
1071
       29
1005
378
  0
LINE
  5
379
102
{ACAD_REACTORS
330
3FD
102
}
330
2C0
100
AcDbEntity
  8
0
  6
Continuous
 62
     7
370
    15
100
AcDbLine
 10
-0.2519464398382212
 20
0.4810611186441634
 30
0.0
 11
-0.0293644813219984
 21
0.2584791601279406
 31
0.0
1001
AcDbBlockRepETag
1070
     1
1071
       30
1005
379
  0
LINE
  5
37A
102
{ACAD_REACTORS
330
3FD
102
}
330
2C0
100
AcDbEntity
  8
0
  6
Continuous
 62
     7
370
    15
100
AcDbLine
 10
-0.0293644813219984
 20
0.2584791601279406
 30
0.0
 11
-0.2774180414837772
 21
0.0104255999661618
 31
0.0
1001
AcDbBlockRepETag
1070
     1
1071
       31
1005
37A
  0
LINE
  5
37B
102
{ACAD_REACTORS
330
3FD
102
}
330
2C0
100
AcDbEntity
  8
0
  6
Continuous
 62
     7
370
    15
100
AcDbLine
 10
-0.2774180414837772
 20
0.0104255999661618
 30
0.0
 11
-0.5
 21
0.2330075584823845
 31
0.0
1001
AcDbBlockRepETag
1070
     1
1071
       32
1005
37B
  0
LINE
  5
37C
102
{ACAD_REACTORS
330
3FD
102
}
330
2C0
100
AcDbEntity
  8
0
  6
Continuous
 62
     7
370
    15
100
AcDbLine
 10
-0.5
 20
0.2330075584823845
 30
0.0
 11
-0.2519464398382212
 21
0.2330075584823845
 31
0.0
1001
AcDbBlockRepETag
1070
     1
1071
       33
1005
37C
  0
LINE
  5
37D
102
{ACAD_REACTORS
330
3FD
102
}
330
2C0
100
AcDbEntity
  8
0
  6
Continuous
 62
     7
370
    15
100
AcDbLine
 10
-0.2519464398382212
 20
0.2330075584823845
 30
0.0
 11
-0.2519464398382212
 21
0.4810611186441634
 31
0.0
1001
AcDbBlockRepETag
1070
     1
1071
       34
1005
37D
  0
LINE
  5
37E
102
{ACAD_REACTORS
330
3FD
102
}
330
2C0
100
AcDbEntity
  8
0
  6
Continuous
 62
     7
370
    15
100
AcDbLine
 10
-0.3641904307949701
 20
-0.399878813324662
 30
0.0
 11
-0.3641904307949701
 21
-0.2856969175844952
 31
0.0
1001
AcDbBlockRepETag
1070
     1
1071
       35
1005
37E
  0
LINE
  5
37F
102
{ACAD_REACTORS
330
3FD
102
}
330
2C0
100
AcDbEntity
  8
0
  6
Continuous
 62
     7
370
    15
100
AcDbLine
 10
-0.4192950352125991
 20
-0.3418900590664151
 30
0.0
 11
-0.3641904307949701
 21
-0.2856969175844952
 31
0.0
1001
AcDbBlockRepETag
1070
     1
1071
       36
1005
37F
  0
LINE
  5
380
102
{ACAD_REACTORS
330
3FD
102
}
330
2C0
100
AcDbEntity
  8
0
  6
Continuous
 62
     7
370
    15
100
AcDbLine
 10
-0.4192950352125991
 20
-0.3418900590664151
 30
0.0
 11
-0.474399639628679
 21
-0.2856969175844952
 31
0.0
1001
AcDbBlockRepETag
1070
     1
1071
       37
1005
380
  0
LINE
  5
381
102
{ACAD_REACTORS
330
3FD
102
}
330
2C0
100
AcDbEntity
  8
0
  6
Continuous
 62
     7
370
    15
100
AcDbLine
 10
-0.5271110211630586
 20
-0.399878813324662
 30
0.0
 11
-0.474399639628679
 21
-0.399878813324662
 31
0.0
1001
AcDbBlockRepETag
1070
     1
1071
       38
1005
381
  0
LINE
  5
382
102
{ACAD_REACTORS
330
3FD
102
}
330
2C0
100
AcDbEntity
  8
0
  6
Continuous
 62
     7
370
    15
100
AcDbLine
 10
-0.5271110211630586
 20
-0.399878813324662
 30
0.0
 11
-0.5271110211630586
 21
-0.2073735998857842
 31
0.0
1001
AcDbBlockRepETag
1070
     1
1071
       39
1005
382
  0
LINE
  5
383
102
{ACAD_REACTORS
330
3FD
102
}
330
2C0
100
AcDbEntity
  8
0
  6
Continuous
 62
     7
370
    15
100
AcDbLine
 10
-0.5271110211630586
 20
-0.2073735998857842
 30
0.0
 11
-0.4800654853696785
 21
-0.2073735998857842
 31
0.0
1001
AcDbBlockRepETag
1070
     1
1071
       40
1005
383
  0
LINE
  5
384
102
{ACAD_REACTORS
330
3FD
102
}
330
2C0
100
AcDbEntity
  8
0
  6
Continuous
 62
     7
370
    15
100
AcDbLine
 10
-0.4192950352125991
 20
-0.2693445102967047
 30
0.0
 11
-0.4800654853696785
 21
-0.2073735998857842
 31
0.0
1001
AcDbBlockRepETag
1070
     1
1071
       41
1005
384
  0
LINE
  5
385
102
{ACAD_REACTORS
330
3FD
102
}
330
2C0
100
AcDbEntity
  8
0
  6
Continuous
 62
     7
370
    15
100
AcDbLine
 10
-0.4192950352125991
 20
-0.2693445102967047
 30
0.0
 11
-0.3585245850555268
 21
-0.2073735998857842
 31
0.0
1001
AcDbBlockRepETag
1070
     1
1071
       42
1005
385
  0
LINE
  5
386
102
{ACAD_REACTORS
330
3FD
102
}
330
2C0
100
AcDbEntity
  8
0
  6
Continuous
 62
     7
370
    15
100
AcDbLine
 10
-0.3114790492605906
 20
-0.2073735998857842
 30
0.0
 11
-0.3585245850555268
 21
-0.2073735998857842
 31
0.0
1001
AcDbBlockRepETag
1070
     1
1071
       43
1005
386
  0
LINE
  5
387
102
{ACAD_REACTORS
330
3FD
102
}
330
2C0
100
AcDbEntity
  8
0
  6
Continuous
 62
     7
370
    15
100
AcDbLine
 10
-0.3114790492605906
 20
-0.399878813324662
 30
0.0
 11
-0.3114790492605906
 21
-0.2073735998857842
 31
0.0
1001
AcDbBlockRepETag
1070
     1
1071
       44
1005
387
  0
LINE
  5
388
102
{ACAD_REACTORS
330
3FD
102
}
330
2C0
100
AcDbEntity
  8
0
  6
Continuous
 62
     7
370
    15
100
AcDbLine
 10
-0.3114790492605906
 20
-0.399878813324662
 30
0.0
 11
-0.3641904307949701
 21
-0.399878813324662
 31
0.0
1001
AcDbBlockRepETag
1070
     1
1071
       45
1005
388
  0
LINE
  5
389
102
{ACAD_REACTORS
330
3FD
102
}
330
2C0
100
AcDbEntity
  8
0
  6
Continuous
 62
     7
370
    15
100
AcDbLine
 10
-0.474399639628679
 20
-0.399878813324662
 30
0.0
 11
-0.474399639628679
 21
-0.2856969175844952
 31
0.0
1001
AcDbBlockRepETag
1070
     1
1071
       46
1005
389
  0
LINE
  5
38A
102
{ACAD_REACTORS
330
3FD
102
}
330
2C0
100
AcDbEntity
  8
0
  6
Continuous
 62
     7
370
    15
100
AcDbLine
 10
-0.3114790492605906
 20
-0.4810611186441705
 30
0.0
 11
-0.3114790492605906
 21
-0.4382718795162646
 31
0.0
1001
AcDbBlockRepETag
1070
     1
1071
       47
1005
38A
  0
LINE
  5
38B
102
{ACAD_REACTORS
330
3FD
102
}
330
2C0
100
AcDbEntity
  8
0
  6
Continuous
 62
     7
370
    15
100
AcDbLine
 10
-0.5271110211630586
 20
-0.4810611186441705
 30
0.0
 11
-0.3114790492605906
 21
-0.4810611186441705
 31
0.0
1001
AcDbBlockRepETag
1070
     1
1071
       48
1005
38B
  0
LINE
  5
38C
102
{ACAD_REACTORS
330
3FD
102
}
330
2C0
100
AcDbEntity
  8
0
  6
Continuous
 62
     7
370
    15
100
AcDbLine
 10
-0.5271110211630586
 20
-0.4382718795162646
 30
0.0
 11
-0.5271110211630586
 21
-0.4810611186441705
 31
0.0
1001
AcDbBlockRepETag
1070
     1
1071
       49
1005
38C
  0
LINE
  5
38D
102
{ACAD_REACTORS
330
3FD
102
}
330
2C0
100
AcDbEntity
  8
0
  6
Continuous
 62
     7
370
    15
100
AcDbLine
 10
-0.3114790492605906
 20
-0.4382718795162646
 30
0.0
 11
-0.5271110211630586
 21
-0.4382718795162646
 31
0.0
1001
AcDbBlockRepETag
1070
     1
1071
       50
1005
38D
  0
LINE
  5
38E
102
{ACAD_REACTORS
330
3FD
102
}
330
2C0
100
AcDbEntity
  8
0
  6
Continuous
 62
     7
370
    15
100
AcDbLine
 10
-0.0859488346873789
 20
-0.4810611186441705
 30
0.0
 11
-0.0859488346873789
 21
-0.3675516215810148
 31
0.0
1001
AcDbBlockRepETag
1070
     1
1071
       51
1005
38E
  0
LINE
  5
38F
102
{ACAD_REACTORS
330
3FD
102
}
330
2C0
100
AcDbEntity
  8
0
  6
Continuous
 62
     7
370
    15
100
AcDbLine
 10
-0.1914849092642541
 20
-0.4810611186441705
 30
0.0
 11
-0.1914849092642541
 21
-0.3675516215810148
 31
0.0
1001
AcDbBlockRepETag
1070
     1
1071
       52
1005
38F
  0
LINE
  5
390
102
{ACAD_REACTORS
330
3FD
102
}
330
2C0
100
AcDbEntity
  8
0
  6
Continuous
 62
     7
370
    15
100
AcDbLine
 10
-0.2441962907986337
 20
-0.4810611186441705
 30
0.0
 11
-0.1914849092642541
 21
-0.4810611186441705
 31
0.0
1001
AcDbBlockRepETag
1070
     1
1071
       53
1005
390
  0
LINE
  5
391
102
{ACAD_REACTORS
330
3FD
102
}
330
2C0
100
AcDbEntity
  8
0
  6
Continuous
 62
     7
370
    15
100
AcDbLine
 10
-0.2441962907986337
 20
-0.2082225601412801
 30
0.0
 11
-0.1914849092642541
 21
-0.2082225601412801
 31
0.0
1001
AcDbBlockRepETag
1070
     1
1071
       54
1005
391
  0
LINE
  5
392
102
{ACAD_REACTORS
330
3FD
102
}
330
2C0
100
AcDbEntity
  8
0
  6
Continuous
 62
     7
370
    15
100
AcDbLine
 10
-0.1914849092642541
 20
-0.2082225601412801
 30
0.0
 11
-0.1914849092642541
 21
-0.3171260231208421
 31
0.0
1001
AcDbBlockRepETag
1070
     1
1071
       55
1005
392
  0
LINE
  5
393
102
{ACAD_REACTORS
330
3FD
102
}
330
2C0
100
AcDbEntity
  8
0
  6
Continuous
 62
     7
370
    15
100
AcDbLine
 10
-0.1914849092642541
 20
-0.3171260231208421
 30
0.0
 11
-0.0859488346873789
 21
-0.3171260231208421
 31
0.0
1001
AcDbBlockRepETag
1070
     1
1071
       56
1005
393
  0
LINE
  5
394
102
{ACAD_REACTORS
330
3FD
102
}
330
2C0
100
AcDbEntity
  8
0
  6
Continuous
 62
     7
370
    15
100
AcDbLine
 10
-0.0332374531529993
 20
-0.2082225601412801
 30
0.0
 11
-0.0859488346873789
 21
-0.2082225601412801
 31
0.0
1001
AcDbBlockRepETag
1070
     1
1071
       57
1005
394
  0
LINE
  5
395
102
{ACAD_REACTORS
330
3FD
102
}
330
2C0
100
AcDbEntity
  8
0
  6
Continuous
 62
     7
370
    15
100
AcDbLine
 10
-0.0332374531529993
 20
-0.4810611186441705
 30
0.0
 11
-0.0332374531529993
 21
-0.2082225601412801
 31
0.0
1001
AcDbBlockRepETag
1070
     1
1071
       58
1005
395
  0
LINE
  5
396
102
{ACAD_REACTORS
330
3FD
102
}
330
2C0
100
AcDbEntity
  8
0
  6
Continuous
 62
     7
370
    15
100
AcDbLine
 10
-0.0332374531529993
 20
-0.4810611186441705
 30
0.0
 11
-0.0859488346873789
 21
-0.4810611186441705
 31
0.0
1001
AcDbBlockRepETag
1070
     1
1071
       59
1005
396
  0
LINE
  5
397
102
{ACAD_REACTORS
330
3FD
102
}
330
2C0
100
AcDbEntity
  8
0
  6
Continuous
 62
     7
370
    15
100
AcDbLine
 10
-0.2441962907986337
 20
-0.4810611186441705
 30
0.0
 11
-0.2441962907986337
 21
-0.2082225601412801
 31
0.0
1001
AcDbBlockRepETag
1070
     1
1071
       60
1005
397
  0
LINE
  5
398
102
{ACAD_REACTORS
330
3FD
102
}
330
2C0
100
AcDbEntity
  8
0
  6
Continuous
 62
     7
370
    15
100
AcDbLine
 10
-0.1914849092642541
 20
-0.3675516215810148
 30
0.0
 11
-0.0859488346873789
 21
-0.3675516215810148
 31
0.0
1001
AcDbBlockRepETag
1070
     1
1071
       61
1005
398
  0
LINE
  5
399
102
{ACAD_REACTORS
330
3FD
102
}
330
2C0
100
AcDbEntity
  8
0
  6
Continuous
 62
     7
370
    15
100
AcDbLine
 10
-0.0859488346873789
 20
-0.2082225601412801
 30
0.0
 11
-0.0859488346873789
 21
-0.3171260231208421
 31
0.0
1001
AcDbBlockRepETag
1070
     1
1071
       62
1005
399
  0
HATCH
  5
3FD
330
2C0
100
AcDbEntity
  8
0
100
AcDbHatch
 10
0.0
 20
0.0
 30
0.0
210
0.0
220
0.0
230
1.0
  2
SOLID
 70
     1
 71
     1
 91
        9
 92
        7
 72
     0
 73
     1
 93
        5
 10
-0.0293644813219984
 20
0.2584791601279406
 10
-0.2519464398382212
 20
0.4810611186441634
 10
-0.2519464398382212
 20
0.2330075584823845
 10
-0.5
 20
0.2330075584823845
 10
-0.2774180414837772
 20
0.0104255999661618
 97
        5
330
379
330
37D
330
37C
330
37B
330
37A
 92
        7
 72
     0
 73
     1
 93
        5
 10
0.2480491406984697
 20
-0.0182501934015207
 10
0.5000000000000001
 20
0.2330075584823845
 10
0.2519464398382212
 20
0.2330075584823845
 10
0.2519464398382212
 20
0.4810611186441633
 10
-0.2487422481145458
 20
-0.0182501934015207
 97
        5
330
378
330
377
330
376
330
375
330
374
 92
        7
 72
     1
 73
     1
 93
       12
 10
0.2504098846299101
 20
-0.2082225601412801
 42
0.0
 10
0.1976985030955304
 20
-0.2082225601412801
 42
0.0
 10
0.1976985030951124
 20
-0.3792196658288347
 42
-0.4142135623730951
 10
0.1511876852272849
 20
-0.4257304836966622
 42
0.0
 10
0.1369780684376427
 20
-0.4257304836966622
 42
-0.4142135623497851
 10
0.0904672505735168
 20
-0.3792196658288347
 42
0.0
 10
0.0904672505730986
 20
-0.2082225601412801
 42
0.0
 10
0.037755869038719
 20
-0.2082225601412801
 42
0.0
 10
0.0377558690389841
 20
-0.3860319820314544
 42
0.4142135623730951
 10
0.1336595495976596
 20
-0.4819356625901299
 42
0.0
 10
0.1545062040697896
 20
-0.4819356625901299
 42
0.4142135623767202
 10
0.250409884629652
 20
-0.3860319820314545
 42
0.0
 97
       12
330
361
330
360
330
35F
330
35E
330
35D
330
35C
330
35B
330
366
330
365
330
364
330
363
330
362
 92
        7
 72
     0
 73
     1
 93
       12
 10
-0.0859488346873789
 20
-0.3171260231208421
 10
-0.1914849092642541
 20
-0.3171260231208421
 10
-0.1914849092642541
 20
-0.2082225601412801
 10
-0.2441962907986337
 20
-0.2082225601412802
 10
-0.2441962907986337
 20
-0.4810611186441704
 10
-0.1914849092642541
 20
-0.4810611186441705
 10
-0.1914849092642541
 20
-0.3675516215810148
 10
-0.0859488346873789
 20
-0.3675516215810148
 10
-0.0859488346873789
 20
-0.4810611186441705
 10
-0.0332374531529993
 20
-0.4810611186441705
 10
-0.0332374531529993
 20
-0.2082225601412802
 10
-0.0859488346873789
 20
-0.2082225601412801
 97
       12
330
394
330
399
330
393
330
392
330
391
330
397
330
390
330
38F
330
398
330
38E
330
396
330
395
 92
        7
 72
     0
 73
     1
 93
       12
 10
-0.4800654853696785
 20
-0.2073735998857842
 10
-0.5271110211630586
 20
-0.2073735998857842
 10
-0.5271110211630586
 20
-0.399878813324662
 10
-0.474399639628679
 20
-0.3998788133246621
 10
-0.474399639628679
 20
-0.2856969175844952
 10
-0.4192950352125991
 20
-0.3418900590664151
 10
-0.3641904307949701
 20
-0.2856969175844953
 10
-0.3641904307949701
 20
-0.399878813324662
 10
-0.3114790492605906
 20
-0.399878813324662
 10
-0.3114790492605906
 20
-0.2073735998857842
 10
-0.3585245850555268
 20
-0.2073735998857841
 10
-0.419295035212599
 20
-0.2693445102967046
 97
       12
330
383
330
382
330
381
330
389
330
380
330
37F
330
37E
330
388
330
387
330
386
330
385
330
384
 92
        5
 93
        5
 72
     1
 10
0.3184866934268199
 20
-0.481287052499404
 11
0.4644009614187919
 21
-0.481287052499404
 72
     4
 94
        3
 73
     0
 74
     0
 95
       13
 96
        9
 40
0.0
 40
0.0
 40
0.0
 40
0.0
 40
0.1801878825863159
 40
0.2924434229452927
 40
0.4439537843042675
 40
0.6559946415084368
 40
0.8500062552168701
 40
1.0
 40
1.0
 40
1.0
 40
1.0
 10
0.4644009614265841
 20
-0.4812870524989421
 10
0.4746662489952911
 20
-0.4812870524989421
 10
0.4938779109781209
 20
-0.4766760280423839
 10
0.5145621827870599
 20
-0.4595812368249952
 10
0.5337752029793848
 20
-0.4362152745816133
 10
0.5333292667110286
 20
-0.4007464841991677
 10
0.5330229566526868
 20
-0.3667764468584949
 10
0.5219621559188994
 20
-0.3476946486199779
 10
0.5148960396757119
 20
-0.3418900590664649
 97
        0
 72
     4
 94
        3
 73
     0
 74
     0
 95
       12
 96
        8
 40
0.0
 40
0.0
 40
0.0
 40
0.0
 40
0.1269273051788832
 40
0.2469044303941401
 40
0.4625494119511644
 40
0.6829493426446178
 40
1.0
 40
1.0
 40
1.0
 40
1.0
 10
0.5148960396757119
 20
-0.3418900590664649
 10
0.5206638080240183
 20
-0.337268147676042
 10
0.5304093704359119
 20
-0.3256185182317921
 10
0.5348229192948822
 20
-0.2982496392942764
 10
0.5327690169982305
 20
-0.2653464695212406
 10
0.5122020511962262
 20
-0.2240796728726266
 10
0.4832229411633051
 20
-0.2082225601410812
 10
0.4618193069002885
 20
-0.2082225601410812
 97
        0
 72
     1
 10
0.4618193069037352
 20
-0.2082225601412801
 11
0.31848669342682
 21
-0.2082225601412802
 72
     1
 10
0.31848669342682
 20
-0.2082225601412802
 11
0.3184866934268199
 21
-0.481287052499404
 97
        5
330
36C
330
36B
330
36A
330
368
330
36D
 92
       20
 93
        4
 72
     1
 10
0.3711980749611996
 20
-0.2611168890256224
 11
0.4559223605323312
 21
-0.2611168890256223
 72
     4
 94
        3
 73
     0
 74
     0
 95
       15
 96
       11
 40
0.0
 40
0.0
 40
0.0
 40
0.0
 40
0.1316371245922375
 40
0.2620996846381567
 40
0.3516505711513103
 40
0.521963022624523
 40
0.6363979990659047
 40
0.7568546857522218
 40
0.8372950583671595
 40
1.0
 40
1.0
 40
1.0
 40
1.0
 10
0.4522637993353911
 20
-0.261116889026141
 10
0.4564774882539169
 20
-0.261116889026141
 10
0.4640153076074541
 20
-0.2630998953650234
 10
0.472765580944845
 20
-0.2697804729118829
 10
0.4783408065607305
 20
-0.2804578591883171
 10
0.4777957808290481
 20
-0.2919035713674063
 10
0.4786284730111632
 20
-0.304328410868969
 10
0.4731661479770466
 20
-0.3126752654910518
 10
0.4650087856427234
 20
-0.3200966836835164
 10
0.4570569378131069
 20
-0.321082684420702
 10
0.4522637993353911
 20
-0.321082684420702
 97
        0
 72
     1
 10
0.452263799346201
 20
-0.3210826844200696
 11
0.3711980749611996
 21
-0.3210826844200698
 72
     1
 10
0.3711980749611996
 20
-0.3210826844200698
 11
0.3711980749611996
 21
-0.2611168890256224
 97
        4
330
370
330
36F
330
36E
330
369
 92
       20
 93
        4
 72
     1
 10
0.3711980749611995
 20
-0.3636719777386759
 11
0.4490004405215933
 21
-0.3636719777386758
 72
     4
 94
        3
 73
     0
 74
     0
 95
       13
 96
        9
 40
0.0
 40
0.0
 40
0.0
 40
0.0
 40
0.2015242104882241
 40
0.2726344462464075
 40
0.5425269744844398
 40
0.7661815815875988
 40
0.8752669755935094
 40
1.0
 40
1.0
 40
1.0
 40
1.0
 10
0.4490004406301083
 20
-0.363671977739024
 10
0.4581147209057619
 20
-0.363671977739024
 10
0.4661797755300654
 20
-0.3632894585458217
 10
0.4778561997790689
 20
-0.3787177531191901
 10
0.4777748734166849
 20
-0.3979991769849178
 10
0.4767390590231387
 20
-0.4198053395358344
 10
0.4638291688530032
 20
-0.4296662456762022
 10
0.4550351307132204
 20
-0.4299772431990832
 10
0.4513953449016697
 20
-0.4299772431990832
 97
        0
 72
     1
 10
0.4513953448957934
 20
-0.429977243199275
 11
0.3711980749611996
 21
-0.429977243199275
 72
     1
 10
0.3711980749611996
 20
-0.429977243199275
 11
0.3711980749611995
 21
-0.3636719777386759
 97
        4
330
373
330
372
330
371
330
367
 92
        7
 72
     0
 73
     1
 93
        4
 10
-0.3114790492605906
 20
-0.4810611186441705
 10
-0.3114790492605906
 20
-0.4382718795162646
 10
-0.5271110211630586
 20
-0.4382718795162646
 10
-0.5271110211630586
 20
-0.4810611186441705
 97
        4
330
38D
330
38C
330
38B
330
38A
 75
     1
 76
     1
 47
0.0013116050131428
 98
        9
 10
-0.2295986456453676
 20
0.0966381168263695
 10
0.2109306285058636
 20
0.0623630735973961
 10
0.2251587561082005
 20
-0.3787660271827349
 10
-0.0673426463894913
 20
-0.3305565514997113
 10
-0.4729851494256963
 20
-0.2564271426777154
 10
0.3433610428080414
 20
-0.2439216820635011
 10
0.3433610428080414
 20
-0.2439216820635011
 10
0.3433610428080414
 20
-0.2439216820635011
 10
-0.4400703373793533
 20
-0.4603365076325332
450
        0
451
        0
460
0.0
461
0.0
452
        0
462
1.0
453
        2
463
0.0
 63
     5
421
      255
463
1.0
 63
     2
421
 16776960
470
LINEAR
1001
GradientColor1ACI
1070
     5
1001
GradientColor2ACI
1070
     2
1001
ACAD
1010
0.0
1020
0.0
1030
0.0
1001
AcDbBlockRepETag
1070
     1
1071
       63
1005
3FD
  0
ENDBLK
  5
301
330
2C0
100
AcDbEntity
  8
0
100
AcDbBlockEnd
  0
BLOCK
  5
87F
330
87E
100
AcDbEntity
  8
0
100
AcDbBlockBegin
  2
-OG
 70
     0
 10
0.0
 20
0.0
 30
0.0
  3
-OG
  1

  0
CIRCLE
  5
881
330
87E
100
AcDbEntity
  8
cut
100
AcDbCircle
 10
0.0
 20
0.0
 30
0.0
 40
1.0
  0
MTEXT
  5
882
102
{ACAD_XDICTIONARY
360
8ED
102
}
330
87E
100
AcDbEntity
  8
raster
100
AcDbMText
 10
0.0
 20
0.0
 30
0.0
 40
0.2
 41
1.995046783656476
 46
0.0
 71
     5
 72
     5
  1
\pxqc;{\H0.65x;Chicago Open AI Challenge\P\H3.07692x;OG}
 73
     1
 44
1.0
101
Embedded Object
 70
     5
 10
1.0
 20
0.0
 30
0.0
 11
0.0
 21
0.0
 31
0.0
 40
1.995046783656476
 41
0.0
 42
1.357728512960436
 43
0.8984375124147339
 71
     2
 72
     1
 44
1.995046783656476
 45
1.0
 73
     0
 74
     0
 46
0.0
  0
ENDBLK
  5
880
330
87E
100
AcDbEntity
  8
0
100
AcDbBlockEnd
  0
BLOCK
  5
B41
330
B40
100
AcDbEntity
  8
0
100
AcDbBlockBegin
  2
laserbeds imperial
 70
     0
 10
0.0
 20
0.0
 30
0.0
  3
laserbeds imperial
  1

  0
LWPOLYLINE
  5
10CF
330
B40
100
AcDbEntity
  8
laserbed
100
AcDbPolyline
 90
        4
 70
     1
 43
0.0
 10
0.0
 20
0.0
 10
24.0
 20
0.0
 10
24.0
 20
-12.0
 10
0.0
 20
-12.0
  0
LWPOLYLINE
  5
10D0
330
B40
100
AcDbEntity
  8
laserbed
100
AcDbPolyline
 90
        2
 70
     0
 43
0.0
 10
1.0
 20
0.0
 10
1.0
 20
0.5
  0
LWPOLYLINE
  5
10D1
330
B40
100
AcDbEntity
  8
laserbed
100
AcDbPolyline
 90
        2
 70
     0
 43
0.0
 10
2.0
 20
0.0
 10
2.0
 20
0.5
  0
LWPOLYLINE
  5
10D2
330
B40
100
AcDbEntity
  8
laserbed
100
AcDbPolyline
 90
        2
 70
     0
 43
0.0
 10
3.0
 20
0.0
 10
3.0
 20
0.5
  0
LWPOLYLINE
  5
10D3
330
B40
100
AcDbEntity
  8
laserbed
100
AcDbPolyline
 90
        2
 70
     0
 43
0.0
 10
4.0
 20
0.0
 10
4.0
 20
0.5
  0
LWPOLYLINE
  5
10D4
330
B40
100
AcDbEntity
  8
laserbed
100
AcDbPolyline
 90
        2
 70
     0
 43
0.0
 10
5.0
 20
0.0
 10
5.0
 20
0.5
  0
LWPOLYLINE
  5
10D5
330
B40
100
AcDbEntity
  8
laserbed
100
AcDbPolyline
 90
        2
 70
     0
 43
0.0
 10
6.0
 20
0.0
 10
6.0
 20
0.5
  0
LWPOLYLINE
  5
10D6
330
B40
100
AcDbEntity
  8
laserbed
100
AcDbPolyline
 90
        2
 70
     0
 43
0.0
 10
7.0
 20
0.0
 10
7.0
 20
0.5
  0
LWPOLYLINE
  5
10D7
330
B40
100
AcDbEntity
  8
laserbed
100
AcDbPolyline
 90
        2
 70
     0
 43
0.0
 10
8.0
 20
0.0
 10
8.0
 20
0.5
  0
LWPOLYLINE
  5
10D8
330
B40
100
AcDbEntity
  8
laserbed
100
AcDbPolyline
 90
        2
 70
     0
 43
0.0
 10
9.0
 20
0.0
 10
9.0
 20
0.5
  0
LWPOLYLINE
  5
10D9
330
B40
100
AcDbEntity
  8
laserbed
100
AcDbPolyline
 90
        2
 70
     0
 43
0.0
 10
10.0
 20
0.0
 10
10.0
 20
0.5
  0
LWPOLYLINE
  5
10DA
330
B40
100
AcDbEntity
  8
laserbed
100
AcDbPolyline
 90
        2
 70
     0
 43
0.0
 10
11.0
 20
0.0
 10
11.0
 20
0.5
  0
LWPOLYLINE
  5
10DB
330
B40
100
AcDbEntity
  8
laserbed
100
AcDbPolyline
 90
        2
 70
     0
 43
0.0
 10
12.0
 20
0.0
 10
12.0
 20
0.5
  0
LWPOLYLINE
  5
10DC
330
B40
100
AcDbEntity
  8
laserbed
100
AcDbPolyline
 90
        2
 70
     0
 43
0.0
 10
13.0
 20
0.0
 10
13.0
 20
0.5
  0
LWPOLYLINE
  5
10DD
330
B40
100
AcDbEntity
  8
laserbed
100
AcDbPolyline
 90
        2
 70
     0
 43
0.0
 10
14.0
 20
0.0
 10
14.0
 20
0.5
  0
LWPOLYLINE
  5
10DE
330
B40
100
AcDbEntity
  8
laserbed
100
AcDbPolyline
 90
        2
 70
     0
 43
0.0
 10
15.0
 20
0.0
 10
15.0
 20
0.5
  0
LWPOLYLINE
  5
10DF
330
B40
100
AcDbEntity
  8
laserbed
100
AcDbPolyline
 90
        2
 70
     0
 43
0.0
 10
16.0
 20
0.0
 10
16.0
 20
0.5
  0
LWPOLYLINE
  5
10E0
330
B40
100
AcDbEntity
  8
laserbed
100
AcDbPolyline
 90
        2
 70
     0
 43
0.0
 10
17.0
 20
0.0
 10
17.0
 20
0.5
  0
LWPOLYLINE
  5
10E1
330
B40
100
AcDbEntity
  8
laserbed
100
AcDbPolyline
 90
        2
 70
     0
 43
0.0
 10
18.0
 20
0.0
 10
18.0
 20
0.5
  0
LWPOLYLINE
  5
10E2
330
B40
100
AcDbEntity
  8
laserbed
100
AcDbPolyline
 90
        2
 70
     0
 43
0.0
 10
19.0
 20
0.0
 10
19.0
 20
0.5
  0
LWPOLYLINE
  5
10E3
330
B40
100
AcDbEntity
  8
laserbed
100
AcDbPolyline
 90
        2
 70
     0
 43
0.0
 10
20.0
 20
0.0
 10
20.0
 20
0.5
  0
LWPOLYLINE
  5
10E4
330
B40
100
AcDbEntity
  8
laserbed
100
AcDbPolyline
 90
        2
 70
     0
 43
0.0
 10
21.0
 20
0.0
 10
21.0
 20
0.5
  0
LWPOLYLINE
  5
10E5
330
B40
100
AcDbEntity
  8
laserbed
100
AcDbPolyline
 90
        2
 70
     0
 43
0.0
 10
22.0
 20
0.0
 10
22.0
 20
0.5
  0
LWPOLYLINE
  5
10E6
330
B40
100
AcDbEntity
  8
laserbed
100
AcDbPolyline
 90
        2
 70
     0
 43
0.0
 10
23.0
 20
0.0
 10
23.0
 20
0.5
  0
LWPOLYLINE
  5
10E7
330
B40
100
AcDbEntity
  8
laserbed
100
AcDbPolyline
 90
        2
 70
     0
 43
0.0
 10
0.0000000000000003
 20
-1.0
 10
-0.4999999999999999
 20
-1.0
  0
LWPOLYLINE
  5
10E8
330
B40
100
AcDbEntity
  8
laserbed
100
AcDbPolyline
 90
        2
 70
     0
 43
0.0
 10
0.0000000000000005
 20
-2.0
 10
-0.4999999999999997
 20
-2.0
  0
LWPOLYLINE
  5
10E9
330
B40
100
AcDbEntity
  8
laserbed
100
AcDbPolyline
 90
        2
 70
     0
 43
0.0
 10
0.0000000000000007
 20
-3.000000000000001
 10
-0.4999999999999994
 20
-3.000000000000001
  0
LWPOLYLINE
  5
10EA
330
B40
100
AcDbEntity
  8
laserbed
100
AcDbPolyline
 90
        2
 70
     0
 43
0.0
 10
0.0000000000000009
 20
-4.0
 10
-0.4999999999999992
 20
-4.0
  0
LWPOLYLINE
  5
10EB
330
B40
100
AcDbEntity
  8
laserbed
100
AcDbPolyline
 90
        2
 70
     0
 43
0.0
 10
0.0000000000000012
 20
-5.0
 10
-0.499999999999999
 20
-5.0
  0
LWPOLYLINE
  5
10EC
330
B40
100
AcDbEntity
  8
laserbed
100
AcDbPolyline
 90
        2
 70
     0
 43
0.0
 10
0.0000000000000014
 20
-6.000000000000001
 10
-0.4999999999999988
 20
-6.000000000000001
  0
LWPOLYLINE
  5
10ED
330
B40
100
AcDbEntity
  8
laserbed
100
AcDbPolyline
 90
        2
 70
     0
 43
0.0
 10
0.0000000000000016
 20
-7.000000000000001
 10
-0.4999999999999985
 20
-7.000000000000001
  0
LWPOLYLINE
  5
10EE
330
B40
100
AcDbEntity
  8
laserbed
100
AcDbPolyline
 90
        2
 70
     0
 43
0.0
 10
0.0000000000000018
 20
-8.000000000000001
 10
-0.4999999999999984
 20
-8.000000000000001
  0
LWPOLYLINE
  5
10EF
330
B40
100
AcDbEntity
  8
laserbed
100
AcDbPolyline
 90
        2
 70
     0
 43
0.0
 10
0.0000000000000021
 20
-9.000000000000001
 10
-0.4999999999999981
 20
-9.000000000000001
  0
LWPOLYLINE
  5
10F0
330
B40
100
AcDbEntity
  8
laserbed
100
AcDbPolyline
 90
        2
 70
     0
 43
0.0
 10
0.0000000000000023
 20
-10.0
 10
-0.4999999999999979
 20
-10.0
  0
LWPOLYLINE
  5
10F1
330
B40
100
AcDbEntity
  8
laserbed
100
AcDbPolyline
 90
        2
 70
     0
 43
0.0
 10
0.0000000000000025
 20
-11.0
 10
-0.4999999999999976
 20
-11.0
  0
TEXT
  5
10F3
330
B40
100
AcDbEntity
  8
laserbed
100
AcDbText
 10
1.844611186903137
 20
0.5999999999999997
 30
0.0
 40
0.4
  1
2
 72
     1
 11
2.0
 21
0.5999999999999997
 31
0.0
100
AcDbText
  0
TEXT
  5
10F5
330
B40
100
AcDbEntity
  8
laserbed
100
AcDbText
 10
3.844611186903137
 20
0.5999999999999997
 30
0.0
 40
0.4
  1
4
 72
     1
 11
4.0
 21
0.5999999999999997
 31
0.0
100
AcDbText
  0
TEXT
  5
10F7
330
B40
100
AcDbEntity
  8
laserbed
100
AcDbText
 10
5.844611186903137
 20
0.5999999999999997
 30
0.0
 40
0.4
  1
6
 72
     1
 11
6.0
 21
0.5999999999999997
 31
0.0
100
AcDbText
  0
TEXT
  5
10F9
330
B40
100
AcDbEntity
  8
laserbed
100
AcDbText
 10
7.844611186903137
 20
0.5999999999999997
 30
0.0
 40
0.4
  1
8
 72
     1
 11
8.0
 21
0.5999999999999997
 31
0.0
100
AcDbText
  0
TEXT
  5
10FB
330
B40
100
AcDbEntity
  8
laserbed
100
AcDbText
 10
9.689222373806275
 20
0.5999999999999997
 30
0.0
 40
0.4
  1
10
 72
     1
 11
10.0
 21
0.5999999999999997
 31
0.0
100
AcDbText
  0
TEXT
  5
10FD
330
B40
100
AcDbEntity
  8
laserbed
100
AcDbText
 10
11.68922237380627
 20
0.5999999999999997
 30
0.0
 40
0.4
  1
12
 72
     1
 11
12.0
 21
0.5999999999999997
 31
0.0
100
AcDbText
  0
TEXT
  5
10FF
330
B40
100
AcDbEntity
  8
laserbed
100
AcDbText
 10
13.68922237380627
 20
0.5999999999999997
 30
0.0
 40
0.4
  1
14
 72
     1
 11
14.0
 21
0.5999999999999997
 31
0.0
100
AcDbText
  0
TEXT
  5
1101
330
B40
100
AcDbEntity
  8
laserbed
100
AcDbText
 10
15.68922237380627
 20
0.5999999999999997
 30
0.0
 40
0.4
  1
16
 72
     1
 11
16.0
 21
0.5999999999999997
 31
0.0
100
AcDbText
  0
TEXT
  5
1103
330
B40
100
AcDbEntity
  8
laserbed
100
AcDbText
 10
17.68922237380627
 20
0.5999999999999997
 30
0.0
 40
0.4
  1
18
 72
     1
 11
18.0
 21
0.5999999999999997
 31
0.0
100
AcDbText
  0
TEXT
  5
1105
330
B40
100
AcDbEntity
  8
laserbed
100
AcDbText
 10
19.68922237380627
 20
0.5999999999999997
 30
0.0
 40
0.4
  1
20
 72
     1
 11
20.0
 21
0.5999999999999997
 31
0.0
100
AcDbText
  0
TEXT
  5
1107
330
B40
100
AcDbEntity
  8
laserbed
100
AcDbText
 10
21.68922237380627
 20
0.5999999999999997
 30
0.0
 40
0.4
  1
22
 72
     1
 11
22.0
 21
0.5999999999999997
 31
0.0
100
AcDbText
  0
TEXT
  5
110A
330
B40
100
AcDbEntity
  8
laserbed
100
AcDbText
 10
-0.5999999999999997
 20
-2.142291950886765
 30
0.0
 40
0.4
  1
2
 50
90.0
 72
     1
 11
-0.5999999999999997
 21
-1.986903137789903
 31
0.0
100
AcDbText
  0
TEXT
  5
110C
330
B40
100
AcDbEntity
  8
laserbed
100
AcDbText
 10
-0.6000000000000015
 20
-4.135470668485674
 30
0.0
 40
0.4
  1
4
 50
90.0
 72
     1
 11
-0.6000000000000015
 21
-3.980081855388812
 31
0.0
100
AcDbText
  0
TEXT
  5
110E
330
B40
100
AcDbEntity
  8
laserbed
100
AcDbText
 10
-0.6000000000000015
 20
-6.150750341064119
 30
0.0
 40
0.4
  1
6
 50
90.0
 72
     1
 11
-0.6000000000000015
 21
-5.995361527967257
 31
0.0
100
AcDbText
  0
TEXT
  5
1110
330
B40
100
AcDbEntity
  8
laserbed
100
AcDbText
 10
-0.6000000000000033
 20
-8.153478854024555
 30
0.0
 40
0.4
  1
8
 50
90.0
 72
     1
 11
-0.6000000000000033
 21
-7.998090040927693
 31
0.0
100
AcDbText
  0
TEXT
  5
1112
330
B40
100
AcDbEntity
  8
laserbed
100
AcDbText
 10
-0.6000000000000033
 20
-10.34488403819918
 30
0.0
 40
0.4
  1
10
 50
90.0
 72
     1
 11
-0.6000000000000033
 21
-10.03410641200545
 31
0.0
100
AcDbText
  0
LWPOLYLINE
  5
1114
330
B40
100
AcDbEntity
  8
laserbed
100
AcDbPolyline
 90
        4
 70
     1
 43
0.0
 10
0.0
 20
0.0
 10
16.0
 20
0.0
 10
16.0
 20
-12.0
 10
0.0
 20
-12.0
  0
TEXT
  5
1115
330
B40
100
AcDbEntity
  8
laserbed
100
AcDbText
 10
13.56139154160982
 20
-12.62871110385278
 30
0.0
 40
0.4
  1
blue laser VLS 2.30
 72
     1
 11
16.0
 21
-12.62871110385278
 31
0.0
100
AcDbText
  0
TEXT
  5
1116
330
B40
100
AcDbEntity
  8
laserbed
100
AcDbText
 10
21.37503410641201
 20
-12.62871110385278
 30
0.0
 40
0.4
  1
green laser VLS 3.60
 72
     1
 11
24.0
 21
-12.62871110385278
 31
0.0
100
AcDbText
  0
TEXT
  5
1117
330
B40
100
AcDbEntity
  8
laserbed
100
AcDbText
 10
44.29320923328785
 20
-36.06178310385278
 30
0.0
 40
0.4
  1
big laser Weike LS1290
 72
     1
 11
47.244096
 21
-36.06178310385278
 31
0.0
100
AcDbText
  0
LWPOLYLINE
  5
1118
330
B40
100
AcDbEntity
  8
laserbed
100
AcDbPolyline
 90
        4
 70
     1
 43
0.0
 10
0.0
 20
-35.433072
 10
47.244096
 20
-35.433072
 10
47.244096
 20
0.0
 10
0.0
 20
0.0
  0
LWPOLYLINE
  5
1119
330
B40
100
AcDbEntity
  8
laserbed
100
AcDbPolyline
 90
        4
 70
     0
 43
0.0
 10
0.0
 20
0.0
 10
32.0
 20
0.0
 10
32.0
 20
-18.0
 10
-0.0000000000000036
 20
-18.0
  0
TEXT
  5
111A
330
B40
100
AcDbEntity
  8
laserbed
100
AcDbText
 10
28.83137789904502
 20
-18.62871110385278
 30
0.0
 40
0.4
  1
big blue laser PLS6.150D
 72
     1
 11
32.0
 21
-18.62871110385278
 31
0.0
100
AcDbText
  0
TEXT
  5
111F
330
B40
100
AcDbEntity
  8
laserbed
100
AcDbText
 10
15.006275579809
 20
2.58484276889966
 30
0.0
 40
0.4
  1
Imperial
 72
     1
 11
16.0
 21
2.58484276889966
 31
0.0
100
AcDbText
  0
LWPOLYLINE
  5
1120
330
B40
100
AcDbEntity
  8
laserbed
100
AcDbPolyline
 90
        2
 70
     0
 43
0.0
 10
24.0
 20
0.0
 10
24.0
 20
0.5
  0
LWPOLYLINE
  5
1121
330
B40
100
AcDbEntity
  8
laserbed
100
AcDbPolyline
 90
        2
 70
     0
 43
0.0
 10
25.0
 20
0.0
 10
25.0
 20
0.5
  0
LWPOLYLINE
  5
1122
330
B40
100
AcDbEntity
  8
laserbed
100
AcDbPolyline
 90
        2
 70
     0
 43
0.0
 10
26.0
 20
0.0
 10
26.0
 20
0.5
  0
LWPOLYLINE
  5
1123
330
B40
100
AcDbEntity
  8
laserbed
100
AcDbPolyline
 90
        2
 70
     0
 43
0.0
 10
27.0
 20
0.0
 10
27.0
 20
0.5
  0
LWPOLYLINE
  5
1124
330
B40
100
AcDbEntity
  8
laserbed
100
AcDbPolyline
 90
        2
 70
     0
 43
0.0
 10
28.0
 20
0.0
 10
28.0
 20
0.5
  0
TEXT
  5
1125
330
B40
100
AcDbEntity
  8
laserbed
100
AcDbText
 10
23.68922237380628
 20
0.5999999999999997
 30
0.0
 40
0.4
  1
24
 72
     1
 11
24.0
 21
0.5999999999999997
 31
0.0
100
AcDbText
  0
TEXT
  5
1127
330
B40
100
AcDbEntity
  8
laserbed
100
AcDbText
 10
25.68922237380628
 20
0.5999999999999997
 30
0.0
 40
0.4
  1
26
 72
     1
 11
26.0
 21
0.5999999999999997
 31
0.0
100
AcDbText
  0
TEXT
  5
1129
330
B40
100
AcDbEntity
  8
laserbed
100
AcDbText
 10
27.68922237380627
 20
0.5999999999999997
 30
0.0
 40
0.4
  1
28
 72
     1
 11
28.0
 21
0.5999999999999997
 31
0.0
100
AcDbText
  0
LWPOLYLINE
  5
112A
330
B40
100
AcDbEntity
  8
laserbed
100
AcDbPolyline
 90
        2
 70
     0
 43
0.0
 10
29.0
 20
0.0
 10
29.0
 20
0.5
  0
LWPOLYLINE
  5
112B
330
B40
100
AcDbEntity
  8
laserbed
100
AcDbPolyline
 90
        2
 70
     0
 43
0.0
 10
30.0
 20
0.0
 10
30.0
 20
0.5
  0
LWPOLYLINE
  5
112C
330
B40
100
AcDbEntity
  8
laserbed
100
AcDbPolyline
 90
        2
 70
     0
 43
0.0
 10
31.0
 20
0.0
 10
31.0
 20
0.5
  0
LWPOLYLINE
  5
112D
330
B40
100
AcDbEntity
  8
laserbed
100
AcDbPolyline
 90
        2
 70
     0
 43
0.0
 10
32.0
 20
0.0
 10
32.0
 20
0.5
  0
TEXT
  5
1130
330
B40
100
AcDbEntity
  8
laserbed
100
AcDbText
 10
29.68922237380628
 20
0.5999999999999997
 30
0.0
 40
0.4
  1
30
 72
     1
 11
30.0
 21
0.5999999999999997
 31
0.0
100
AcDbText
  0
TEXT
  5
1132
330
B40
100
AcDbEntity
  8
laserbed
100
AcDbText
 10
31.68922237380627
 20
0.5999999999999997
 30
0.0
 40
0.4
  1
32
 72
     1
 11
32.0
 21
0.5999999999999997
 31
0.0
100
AcDbText
  0
LWPOLYLINE
  5
1134
330
B40
100
AcDbEntity
  8
laserbed
100
AcDbPolyline
 90
        2
 70
     0
 43
0.0
 10
0.0000000000000027
 20
-12.0
 10
-0.4999999999999975
 20
-12.0
  0
LWPOLYLINE
  5
1135
330
B40
100
AcDbEntity
  8
laserbed
100
AcDbPolyline
 90
        2
 70
     0
 43
0.0
 10
0.0000000000000029
 20
-13.0
 10
-0.4999999999999972
 20
-13.0
  0
LWPOLYLINE
  5
1136
330
B40
100
AcDbEntity
  8
laserbed
100
AcDbPolyline
 90
        2
 70
     0
 43
0.0
 10
0.0000000000000032
 20
-14.0
 10
-0.499999999999997
 20
-14.0
  0
LWPOLYLINE
  5
1137
330
B40
100
AcDbEntity
  8
laserbed
100
AcDbPolyline
 90
        2
 70
     0
 43
0.0
 10
0.0000000000000034
 20
-15.0
 10
-0.4999999999999968
 20
-15.0
  0
TEXT
  5
1138
330
B40
100
AcDbEntity
  8
laserbed
100
AcDbText
 10
-0.6000000000000024
 20
-12.30886766712141
 30
0.0
 40
0.4
  1
12
 50
90.0
 72
     1
 11
-0.6000000000000024
 21
-11.99809004092769
 31
0.0
100
AcDbText
  0
TEXT
  5
113A
330
B40
100
AcDbEntity
  8
laserbed
100
AcDbText
 10
-0.6000000000000024
 20
-14.34488403819918
 30
0.0
 40
0.4
  1
14
 50
90.0
 72
     1
 11
-0.6000000000000024
 21
-14.03410641200546
 31
0.0
100
AcDbText
  0
LWPOLYLINE
  5
113C
330
B40
100
AcDbEntity
  8
laserbed
100
AcDbPolyline
 90
        2
 70
     0
 43
0.0
 10
0.0000000000000036
 20
-16.0
 10
-0.4999999999999966
 20
-16.0
  0
LWPOLYLINE
  5
113D
330
B40
100
AcDbEntity
  8
laserbed
100
AcDbPolyline
 90
        2
 70
     0
 43
0.0
 10
0.0000000000000038
 20
-17.0
 10
-0.4999999999999963
 20
-17.0
  0
LWPOLYLINE
  5
113E
330
B40
100
AcDbEntity
  8
laserbed
100
AcDbPolyline
 90
        2
 70
     0
 43
0.0
 10
0.0000000000000041
 20
-18.0
 10
-0.4999999999999961
 20
-18.0
  0
TEXT
  5
1140
330
B40
100
AcDbEntity
  8
laserbed
100
AcDbText
 10
-0.6000000000000015
 20
-16.30886766712142
 30
0.0
 40
0.4
  1
16
 50
90.0
 72
     1
 11
-0.6000000000000015
 21
-15.99809004092769
 31
0.0
100
AcDbText
  0
TEXT
  5
1142
330
B40
100
AcDbEntity
  8
laserbed
100
AcDbText
 10
-0.6000000000000015
 20
-18.34488403819918
 30
0.0
 40
0.4
  1
18
 50
90.0
 72
     1
 11
-0.6000000000000015
 21
-18.03410641200546
 31
0.0
100
AcDbText
  0
LWPOLYLINE
  5
1144
330
B40
100
AcDbEntity
  8
laserbed
100
AcDbPolyline
 90
        2
 70
     0
 43
0.0
 10
34.0
 20
0.0
 10
34.0
 20
0.5
  0
LWPOLYLINE
  5
1145
330
B40
100
AcDbEntity
  8
laserbed
100
AcDbPolyline
 90
        2
 70
     0
 43
0.0
 10
35.0
 20
0.0
 10
35.0
 20
0.5
  0
LWPOLYLINE
  5
1146
330
B40
100
AcDbEntity
  8
laserbed
100
AcDbPolyline
 90
        2
 70
     0
 43
0.0
 10
36.0
 20
0.0
 10
36.0
 20
0.5
  0
LWPOLYLINE
  5
1147
330
B40
100
AcDbEntity
  8
laserbed
100
AcDbPolyline
 90
        2
 70
     0
 43
0.0
 10
37.0
 20
0.0
 10
37.0
 20
0.5
  0
LWPOLYLINE
  5
1148
330
B40
100
AcDbEntity
  8
laserbed
100
AcDbPolyline
 90
        2
 70
     0
 43
0.0
 10
38.0
 20
0.0
 10
38.0
 20
0.5
  0
TEXT
  5
1149
330
B40
100
AcDbEntity
  8
laserbed
100
AcDbText
 10
33.68922237380628
 20
0.5999999999999997
 30
0.0
 40
0.4
  1
34
 72
     1
 11
34.0
 21
0.5999999999999997
 31
0.0
100
AcDbText
  0
TEXT
  5
114A
330
B40
100
AcDbEntity
  8
laserbed
100
AcDbText
 10
35.68922237380628
 20
0.5999999999999997
 30
0.0
 40
0.4
  1
36
 72
     1
 11
36.0
 21
0.5999999999999997
 31
0.0
100
AcDbText
  0
TEXT
  5
114B
330
B40
100
AcDbEntity
  8
laserbed
100
AcDbText
 10
37.68922237380627
 20
0.5999999999999997
 30
0.0
 40
0.4
  1
38
 72
     1
 11
38.0
 21
0.5999999999999997
 31
0.0
100
AcDbText
  0
LWPOLYLINE
  5
114C
330
B40
100
AcDbEntity
  8
laserbed
100
AcDbPolyline
 90
        2
 70
     0
 43
0.0
 10
39.0
 20
0.0
 10
39.0
 20
0.5
  0
LWPOLYLINE
  5
114D
330
B40
100
AcDbEntity
  8
laserbed
100
AcDbPolyline
 90
        2
 70
     0
 43
0.0
 10
40.0
 20
0.0
 10
40.0
 20
0.5
  0
LWPOLYLINE
  5
114E
330
B40
100
AcDbEntity
  8
laserbed
100
AcDbPolyline
 90
        2
 70
     0
 43
0.0
 10
41.0
 20
0.0
 10
41.0
 20
0.5
  0
LWPOLYLINE
  5
114F
330
B40
100
AcDbEntity
  8
laserbed
100
AcDbPolyline
 90
        2
 70
     0
 43
0.0
 10
42.0
 20
0.0
 10
42.0
 20
0.5
  0
TEXT
  5
1150
330
B40
100
AcDbEntity
  8
laserbed
100
AcDbText
 10
39.68922237380628
 20
0.5999999999999997
 30
0.0
 40
0.4
  1
40
 72
     1
 11
40.0
 21
0.5999999999999997
 31
0.0
100
AcDbText
  0
TEXT
  5
1151
330
B40
100
AcDbEntity
  8
laserbed
100
AcDbText
 10
41.68922237380627
 20
0.5999999999999997
 30
0.0
 40
0.4
  1
42
 72
     1
 11
42.0
 21
0.5999999999999997
 31
0.0
100
AcDbText
  0
LWPOLYLINE
  5
1152
330
B40
100
AcDbEntity
  8
laserbed
100
AcDbPolyline
 90
        2
 70
     0
 43
0.0
 10
44.0
 20
0.0
 10
44.0
 20
0.5
  0
LWPOLYLINE
  5
1153
330
B40
100
AcDbEntity
  8
laserbed
100
AcDbPolyline
 90
        2
 70
     0
 43
0.0
 10
45.0
 20
0.0
 10
45.0
 20
0.5
  0
LWPOLYLINE
  5
1154
330
B40
100
AcDbEntity
  8
laserbed
100
AcDbPolyline
 90
        2
 70
     0
 43
0.0
 10
46.0
 20
0.0
 10
46.0
 20
0.5
  0
LWPOLYLINE
  5
1155
330
B40
100
AcDbEntity
  8
laserbed
100
AcDbPolyline
 90
        2
 70
     0
 43
0.0
 10
47.0
 20
0.0
 10
47.0
 20
0.5
  0
TEXT
  5
1157
330
B40
100
AcDbEntity
  8
laserbed
100
AcDbText
 10
43.68922237380627
 20
0.5999999999999997
 30
0.0
 40
0.4
  1
44
 72
     1
 11
44.0
 21
0.5999999999999997
 31
0.0
100
AcDbText
  0
TEXT
  5
1158
330
B40
100
AcDbEntity
  8
laserbed
100
AcDbText
 10
45.68922237380627
 20
0.5999999999999997
 30
0.0
 40
0.4
  1
46
 72
     1
 11
46.0
 21
0.5999999999999997
 31
0.0
100
AcDbText
  0
LWPOLYLINE
  5
1160
330
B40
100
AcDbEntity
  8
laserbed
100
AcDbPolyline
 90
        2
 70
     0
 43
0.0
 10
0.0000000000000045
 20
-20.0
 10
-0.4999999999999957
 20
-20.0
  0
LWPOLYLINE
  5
1161
330
B40
100
AcDbEntity
  8
laserbed
100
AcDbPolyline
 90
        2
 70
     0
 43
0.0
 10
0.0000000000000047
 20
-21.0
 10
-0.4999999999999954
 20
-21.0
  0
LWPOLYLINE
  5
1162
330
B40
100
AcDbEntity
  8
laserbed
100
AcDbPolyline
 90
        2
 70
     0
 43
0.0
 10
0.0000000000000049
 20
-22.0
 10
-0.4999999999999952
 20
-22.0
  0
LWPOLYLINE
  5
1163
330
B40
100
AcDbEntity
  8
laserbed
100
AcDbPolyline
 90
        2
 70
     0
 43
0.0
 10
0.0000000000000052
 20
-23.0
 10
-0.499999999999995
 20
-23.0
  0
LWPOLYLINE
  5
1164
330
B40
100
AcDbEntity
  8
laserbed
100
AcDbPolyline
 90
        2
 70
     0
 43
0.0
 10
0.0000000000000054
 20
-24.0
 10
-0.4999999999999948
 20
-24.0
  0
LWPOLYLINE
  5
1165
330
B40
100
AcDbEntity
  8
laserbed
100
AcDbPolyline
 90
        2
 70
     0
 43
0.0
 10
0.0000000000000056
 20
-25.0
 10
-0.4999999999999945
 20
-25.0
  0
LWPOLYLINE
  5
1166
330
B40
100
AcDbEntity
  8
laserbed
100
AcDbPolyline
 90
        2
 70
     0
 43
0.0
 10
0.0000000000000058
 20
-26.0
 10
-0.4999999999999944
 20
-26.0
  0
LWPOLYLINE
  5
1167
330
B40
100
AcDbEntity
  8
laserbed
100
AcDbPolyline
 90
        2
 70
     0
 43
0.0
 10
0.0000000000000061
 20
-27.0
 10
-0.4999999999999941
 20
-27.0
  0
TEXT
  5
1168
330
B40
100
AcDbEntity
  8
laserbed
100
AcDbText
 10
-0.5999999999999979
 20
-20.29085948158254
 30
0.0
 40
0.4
  1
20
 50
90.0
 72
     1
 11
-0.5999999999999979
 21
-19.98008185538881
 31
0.0
100
AcDbText
  0
TEXT
  5
1169
330
B40
100
AcDbEntity
  8
laserbed
100
AcDbText
 10
-0.599999999999998
 20
-22.30613915416098
 30
0.0
 40
0.4
  1
22
 50
90.0
 72
     1
 11
-0.599999999999998
 21
-21.99536152796726
 31
0.0
100
AcDbText
  0
TEXT
  5
116A
330
B40
100
AcDbEntity
  8
laserbed
100
AcDbText
 10
-0.5999999999999998
 20
-24.30886766712142
 30
0.0
 40
0.4
  1
24
 50
90.0
 72
     1
 11
-0.5999999999999998
 21
-23.99809004092769
 31
0.0
100
AcDbText
  0
TEXT
  5
116B
330
B40
100
AcDbEntity
  8
laserbed
100
AcDbText
 10
-0.5999999999999998
 20
-26.34488403819919
 30
0.0
 40
0.4
  1
26
 50
90.0
 72
     1
 11
-0.5999999999999998
 21
-26.03410641200546
 31
0.0
100
AcDbText
  0
LWPOLYLINE
  5
116C
330
B40
100
AcDbEntity
  8
laserbed
100
AcDbPolyline
 90
        2
 70
     0
 43
0.0
 10
0.0000000000000063
 20
-28.0
 10
-0.4999999999999939
 20
-28.0
  0
LWPOLYLINE
  5
116D
330
B40
100
AcDbEntity
  8
laserbed
100
AcDbPolyline
 90
        2
 70
     0
 43
0.0
 10
0.0000000000000065
 20
-29.0
 10
-0.4999999999999936
 20
-29.0
  0
LWPOLYLINE
  5
116E
330
B40
100
AcDbEntity
  8
laserbed
100
AcDbPolyline
 90
        2
 70
     0
 43
0.0
 10
0.0000000000000067
 20
-30.0
 10
-0.4999999999999935
 20
-30.0
  0
LWPOLYLINE
  5
116F
330
B40
100
AcDbEntity
  8
laserbed
100
AcDbPolyline
 90
        2
 70
     0
 43
0.0
 10
0.0000000000000069
 20
-31.0
 10
-0.4999999999999932
 20
-31.0
  0
TEXT
  5
1170
330
B40
100
AcDbEntity
  8
laserbed
100
AcDbText
 10
-0.5999999999999989
 20
-28.30886766712142
 30
0.0
 40
0.4
  1
28
 50
90.0
 72
     1
 11
-0.5999999999999989
 21
-27.99809004092769
 31
0.0
100
AcDbText
  0
TEXT
  5
1171
330
B40
100
AcDbEntity
  8
laserbed
100
AcDbText
 10
-0.5999999999999989
 20
-30.34488403819918
 30
0.0
 40
0.4
  1
30
 50
90.0
 72
     1
 11
-0.5999999999999989
 21
-30.03410641200546
 31
0.0
100
AcDbText
  0
LWPOLYLINE
  5
1172
330
B40
100
AcDbEntity
  8
laserbed
100
AcDbPolyline
 90
        2
 70
     0
 43
0.0
 10
0.0000000000000072
 20
-32.0
 10
-0.499999999999993
 20
-32.0
  0
LWPOLYLINE
  5
1173
330
B40
100
AcDbEntity
  8
laserbed
100
AcDbPolyline
 90
        2
 70
     0
 43
0.0
 10
0.0000000000000074
 20
-33.0
 10
-0.4999999999999928
 20
-33.0
  0
LWPOLYLINE
  5
1174
330
B40
100
AcDbEntity
  8
laserbed
100
AcDbPolyline
 90
        2
 70
     0
 43
0.0
 10
0.0000000000000076
 20
-34.0
 10
-0.4999999999999926
 20
-34.0
  0
TEXT
  5
1175
330
B40
100
AcDbEntity
  8
laserbed
100
AcDbText
 10
-0.599999999999998
 20
-32.30886766712142
 30
0.0
 40
0.4
  1
32
 50
90.0
 72
     1
 11
-0.599999999999998
 21
-31.99809004092769
 31
0.0
100
AcDbText
  0
TEXT
  5
1176
330
B40
100
AcDbEntity
  8
laserbed
100
AcDbText
 10
-0.599999999999998
 20
-34.34488403819918
 30
0.0
 40
0.4
  1
34
 50
90.0
 72
     1
 11
-0.599999999999998
 21
-34.03410641200546
 31
0.0
100
AcDbText
  0
LWPOLYLINE
  5
117D
330
B40
100
AcDbEntity
  8
laserbed
100
AcDbPolyline
 90
        2
 70
     0
 43
0.0
 10
0.0000000000000078
 20
-35.0
 10
-0.4999999999999923
 20
-35.0
  0
ENDBLK
  5
B42
330
B40
100
AcDbEntity
  8
0
100
AcDbBlockEnd
  0
BLOCK
  5
CAE
330
CAD
100
AcDbEntity
  8
0
100
AcDbBlockBegin
  2
laserbeds metric
 70
     0
 10
0.0
 20
0.0
 30
0.0
  3
laserbeds metric
  1

  0
LWPOLYLINE
  5
1038
330
CAD
100
AcDbEntity
  8
laserbed
100
AcDbPolyline
 90
        4
 70
     1
 43
0.0
 10
0.0
 20
0.0
 10
609.6
 20
0.0
 10
609.6
 20
-304.8
 10
0.0
 20
-304.8
  0
LWPOLYLINE
  5
1039
330
CAD
100
AcDbEntity
  8
laserbed
100
AcDbPolyline
 90
        2
 70
     0
 43
0.0
 10
10.0
 20
0.0
 10
10.0
 20
12.7
  0
TEXT
  5
103A
330
CAD
100
AcDbEntity
  8
laserbed
100
AcDbText
 10
2.106248294679399
 20
15.23999999999999
 30
0.0
 40
10.16
  1
10
 72
     1
 11
10.0
 21
15.23999999999999
 31
0.0
100
AcDbText
  0
LWPOLYLINE
  5
103B
330
CAD
100
AcDbEntity
  8
laserbed
100
AcDbPolyline
 90
        4
 70
     1
 43
0.0
 10
0.0
 20
0.0
 10
406.4
 20
0.0
 10
406.4
 20
-304.8
 10
0.0
 20
-304.8
  0
TEXT
  5
103C
330
CAD
100
AcDbEntity
  8
laserbed
100
AcDbText
 10
344.4593451568895
 20
-320.7692620378606
 30
0.0
 40
10.16
  1
blue laser VLS 2.30
 72
     1
 11
406.4
 21
-320.7692620378606
 31
0.0
100
AcDbText
  0
TEXT
  5
103D
330
CAD
100
AcDbEntity
  8
laserbed
100
AcDbText
 10
542.9258663028649
 20
-320.7692620378606
 30
0.0
 40
10.16
  1
green laser VLS 3.60
 72
     1
 11
609.6
 21
-320.7692620378606
 31
0.0
100
AcDbText
  0
LWPOLYLINE
  5
103E
330
CAD
100
AcDbEntity
  8
laserbed
100
AcDbPolyline
 90
        2
 70
     0
 43
0.0
 10
20.0
 20
0.0
 10
20.0
 20
12.7
  0
LWPOLYLINE
  5
103F
330
CAD
100
AcDbEntity
  8
laserbed
100
AcDbPolyline
 90
        2
 70
     0
 43
0.0
 10
30.0
 20
0.0
 10
30.0
 20
12.7
  0
LWPOLYLINE
  5
1040
330
CAD
100
AcDbEntity
  8
laserbed
100
AcDbPolyline
 90
        2
 70
     0
 43
0.0
 10
40.0
 20
0.0
 10
40.0
 20
12.7
  0
LWPOLYLINE
  5
1041
330
CAD
100
AcDbEntity
  8
laserbed
100
AcDbPolyline
 90
        2
 70
     0
 43
0.0
 10
50.0
 20
0.0
 10
50.0
 20
12.7
  0
TEXT
  5
1042
330
CAD
100
AcDbEntity
  8
laserbed
100
AcDbText
 10
42.1062482946794
 20
15.23999999999999
 30
0.0
 40
10.16
  1
50
 72
     1
 11
50.0
 21
15.23999999999999
 31
0.0
100
AcDbText
  0
LWPOLYLINE
  5
1043
330
CAD
100
AcDbEntity
  8
laserbed
100
AcDbPolyline
 90
        2
 70
     0
 43
0.0
 10
60.0
 20
0.0
 10
60.0
 20
12.7
  0
LWPOLYLINE
  5
1044
330
CAD
100
AcDbEntity
  8
laserbed
100
AcDbPolyline
 90
        2
 70
     0
 43
0.0
 10
70.0
 20
0.0
 10
70.0
 20
12.7
  0
LWPOLYLINE
  5
1045
330
CAD
100
AcDbEntity
  8
laserbed
100
AcDbPolyline
 90
        2
 70
     0
 43
0.0
 10
80.0
 20
0.0
 10
80.0
 20
12.7
  0
LWPOLYLINE
  5
1046
330
CAD
100
AcDbEntity
  8
laserbed
100
AcDbPolyline
 90
        2
 70
     0
 43
0.0
 10
90.0
 20
0.0
 10
90.0
 20
12.7
  0
LWPOLYLINE
  5
1047
330
CAD
100
AcDbEntity
  8
laserbed
100
AcDbPolyline
 90
        2
 70
     0
 43
0.0
 10
100.0
 20
0.0
 10
100.0
 20
12.7
  0
TEXT
  5
1048
330
CAD
100
AcDbEntity
  8
laserbed
100
AcDbText
 10
88.1593724420191
 20
15.23999999999999
 30
0.0
 40
10.16
  1
100
 72
     1
 11
100.0
 21
15.23999999999999
 31
0.0
100
AcDbText
  0
LWPOLYLINE
  5
1049
330
CAD
100
AcDbEntity
  8
laserbed
100
AcDbPolyline
 90
        2
 70
     0
 43
0.0
 10
110.0
 20
0.0
 10
110.0
 20
12.7
  0
LWPOLYLINE
  5
104A
330
CAD
100
AcDbEntity
  8
laserbed
100
AcDbPolyline
 90
        2
 70
     0
 43
0.0
 10
120.0
 20
0.0
 10
120.0
 20
12.7
  0
LWPOLYLINE
  5
104B
330
CAD
100
AcDbEntity
  8
laserbed
100
AcDbPolyline
 90
        2
 70
     0
 43
0.0
 10
130.0
 20
0.0
 10
130.0
 20
12.7
  0
LWPOLYLINE
  5
104C
330
CAD
100
AcDbEntity
  8
laserbed
100
AcDbPolyline
 90
        2
 70
     0
 43
0.0
 10
140.0
 20
0.0
 10
140.0
 20
12.7
  0
LWPOLYLINE
  5
104D
330
CAD
100
AcDbEntity
  8
laserbed
100
AcDbPolyline
 90
        2
 70
     0
 43
0.0
 10
150.0
 20
0.0
 10
150.0
 20
12.7
  0
TEXT
  5
104E
330
CAD
100
AcDbEntity
  8
laserbed
100
AcDbText
 10
138.1593724420191
 20
15.23999999999999
 30
0.0
 40
10.16
  1
150
 72
     1
 11
150.0
 21
15.23999999999999
 31
0.0
100
AcDbText
  0
LWPOLYLINE
  5
104F
330
CAD
100
AcDbEntity
  8
laserbed
100
AcDbPolyline
 90
        2
 70
     0
 43
0.0
 10
160.0
 20
0.0
 10
160.0
 20
12.7
  0
LWPOLYLINE
  5
1050
330
CAD
100
AcDbEntity
  8
laserbed
100
AcDbPolyline
 90
        2
 70
     0
 43
0.0
 10
170.0
 20
0.0
 10
170.0
 20
12.7
  0
LWPOLYLINE
  5
1051
330
CAD
100
AcDbEntity
  8
laserbed
100
AcDbPolyline
 90
        2
 70
     0
 43
0.0
 10
180.0
 20
0.0
 10
180.0
 20
12.7
  0
LWPOLYLINE
  5
1052
330
CAD
100
AcDbEntity
  8
laserbed
100
AcDbPolyline
 90
        2
 70
     0
 43
0.0
 10
190.0
 20
0.0
 10
190.0
 20
12.7
  0
LWPOLYLINE
  5
1053
330
CAD
100
AcDbEntity
  8
laserbed
100
AcDbPolyline
 90
        2
 70
     0
 43
0.0
 10
200.0
 20
0.0
 10
200.0
 20
12.7
  0
TEXT
  5
1054
330
CAD
100
AcDbEntity
  8
laserbed
100
AcDbText
 10
188.1593724420191
 20
15.23999999999999
 30
0.0
 40
10.16
  1
200
 72
     1
 11
200.0
 21
15.23999999999999
 31
0.0
100
AcDbText
  0
LWPOLYLINE
  5
1055
330
CAD
100
AcDbEntity
  8
laserbed
100
AcDbPolyline
 90
        2
 70
     0
 43
0.0
 10
210.0
 20
0.0
 10
210.0
 20
12.7
  0
LWPOLYLINE
  5
1056
330
CAD
100
AcDbEntity
  8
laserbed
100
AcDbPolyline
 90
        2
 70
     0
 43
0.0
 10
220.0
 20
0.0
 10
220.0
 20
12.7
  0
LWPOLYLINE
  5
1057
330
CAD
100
AcDbEntity
  8
laserbed
100
AcDbPolyline
 90
        2
 70
     0
 43
0.0
 10
230.0
 20
0.0
 10
230.0
 20
12.7
  0
LWPOLYLINE
  5
1058
330
CAD
100
AcDbEntity
  8
laserbed
100
AcDbPolyline
 90
        2
 70
     0
 43
0.0
 10
240.0
 20
0.0
 10
240.0
 20
12.7
  0
LWPOLYLINE
  5
1059
330
CAD
100
AcDbEntity
  8
laserbed
100
AcDbPolyline
 90
        2
 70
     0
 43
0.0
 10
250.0
 20
0.0
 10
250.0
 20
12.7
  0
TEXT
  5
105A
330
CAD
100
AcDbEntity
  8
laserbed
100
AcDbText
 10
238.1593724420191
 20
15.23999999999999
 30
0.0
 40
10.16
  1
250
 72
     1
 11
250.0
 21
15.23999999999999
 31
0.0
100
AcDbText
  0
LWPOLYLINE
  5
105B
330
CAD
100
AcDbEntity
  8
laserbed
100
AcDbPolyline
 90
        2
 70
     0
 43
0.0
 10
260.0
 20
0.0
 10
260.0
 20
12.7
  0
LWPOLYLINE
  5
105C
330
CAD
100
AcDbEntity
  8
laserbed
100
AcDbPolyline
 90
        2
 70
     0
 43
0.0
 10
270.0
 20
0.0
 10
270.0
 20
12.7
  0
LWPOLYLINE
  5
105D
330
CAD
100
AcDbEntity
  8
laserbed
100
AcDbPolyline
 90
        2
 70
     0
 43
0.0
 10
280.0
 20
0.0
 10
280.0
 20
12.7
  0
LWPOLYLINE
  5
105E
330
CAD
100
AcDbEntity
  8
laserbed
100
AcDbPolyline
 90
        2
 70
     0
 43
0.0
 10
290.0
 20
0.0
 10
290.0
 20
12.7
  0
LWPOLYLINE
  5
105F
330
CAD
100
AcDbEntity
  8
laserbed
100
AcDbPolyline
 90
        2
 70
     0
 43
0.0
 10
300.0
 20
0.0
 10
300.0
 20
12.7
  0
TEXT
  5
1060
330
CAD
100
AcDbEntity
  8
laserbed
100
AcDbText
 10
288.1593724420191
 20
15.23999999999999
 30
0.0
 40
10.16
  1
300
 72
     1
 11
300.0
 21
15.23999999999999
 31
0.0
100
AcDbText
  0
LWPOLYLINE
  5
1061
330
CAD
100
AcDbEntity
  8
laserbed
100
AcDbPolyline
 90
        2
 70
     0
 43
0.0
 10
310.0
 20
0.0
 10
310.0
 20
12.7
  0
LWPOLYLINE
  5
1062
330
CAD
100
AcDbEntity
  8
laserbed
100
AcDbPolyline
 90
        2
 70
     0
 43
0.0
 10
320.0
 20
0.0
 10
320.0
 20
12.7
  0
LWPOLYLINE
  5
1063
330
CAD
100
AcDbEntity
  8
laserbed
100
AcDbPolyline
 90
        2
 70
     0
 43
0.0
 10
330.0
 20
0.0
 10
330.0
 20
12.7
  0
LWPOLYLINE
  5
1064
330
CAD
100
AcDbEntity
  8
laserbed
100
AcDbPolyline
 90
        2
 70
     0
 43
0.0
 10
340.0
 20
0.0
 10
340.0
 20
12.7
  0
LWPOLYLINE
  5
1065
330
CAD
100
AcDbEntity
  8
laserbed
100
AcDbPolyline
 90
        2
 70
     0
 43
0.0
 10
350.0
 20
0.0
 10
350.0
 20
12.7
  0
TEXT
  5
1066
330
CAD
100
AcDbEntity
  8
laserbed
100
AcDbText
 10
338.1593724420191
 20
15.23999999999999
 30
0.0
 40
10.16
  1
350
 72
     1
 11
350.0
 21
15.23999999999999
 31
0.0
100
AcDbText
  0
LWPOLYLINE
  5
1067
330
CAD
100
AcDbEntity
  8
laserbed
100
AcDbPolyline
 90
        2
 70
     0
 43
0.0
 10
360.0
 20
0.0
 10
360.0
 20
12.7
  0
LWPOLYLINE
  5
1068
330
CAD
100
AcDbEntity
  8
laserbed
100
AcDbPolyline
 90
        2
 70
     0
 43
0.0
 10
370.0
 20
0.0
 10
370.0
 20
12.7
  0
LWPOLYLINE
  5
1069
330
CAD
100
AcDbEntity
  8
laserbed
100
AcDbPolyline
 90
        2
 70
     0
 43
0.0
 10
380.0
 20
0.0
 10
380.0
 20
12.7
  0
LWPOLYLINE
  5
106A
330
CAD
100
AcDbEntity
  8
laserbed
100
AcDbPolyline
 90
        2
 70
     0
 43
0.0
 10
390.0
 20
0.0
 10
390.0
 20
12.7
  0
LWPOLYLINE
  5
106B
330
CAD
100
AcDbEntity
  8
laserbed
100
AcDbPolyline
 90
        2
 70
     0
 43
0.0
 10
400.0
 20
0.0
 10
400.0
 20
12.7
  0
TEXT
  5
106C
330
CAD
100
AcDbEntity
  8
laserbed
100
AcDbText
 10
388.1593724420191
 20
15.23999999999999
 30
0.0
 40
10.16
  1
400
 72
     1
 11
400.0
 21
15.23999999999999
 31
0.0
100
AcDbText
  0
LWPOLYLINE
  5
106D
330
CAD
100
AcDbEntity
  8
laserbed
100
AcDbPolyline
 90
        2
 70
     0
 43
0.0
 10
410.0
 20
0.0
 10
410.0
 20
12.7
  0
LWPOLYLINE
  5
106E
330
CAD
100
AcDbEntity
  8
laserbed
100
AcDbPolyline
 90
        2
 70
     0
 43
0.0
 10
420.0
 20
0.0
 10
420.0
 20
12.7
  0
LWPOLYLINE
  5
106F
330
CAD
100
AcDbEntity
  8
laserbed
100
AcDbPolyline
 90
        2
 70
     0
 43
0.0
 10
430.0
 20
0.0
 10
430.0
 20
12.7
  0
LWPOLYLINE
  5
1070
330
CAD
100
AcDbEntity
  8
laserbed
100
AcDbPolyline
 90
        2
 70
     0
 43
0.0
 10
440.0
 20
0.0
 10
440.0
 20
12.7
  0
LWPOLYLINE
  5
1071
330
CAD
100
AcDbEntity
  8
laserbed
100
AcDbPolyline
 90
        2
 70
     0
 43
0.0
 10
450.0
 20
0.0
 10
450.0
 20
12.7
  0
TEXT
  5
1072
330
CAD
100
AcDbEntity
  8
laserbed
100
AcDbText
 10
438.1593724420191
 20
15.23999999999999
 30
0.0
 40
10.16
  1
450
 72
     1
 11
450.0
 21
15.23999999999999
 31
0.0
100
AcDbText
  0
LWPOLYLINE
  5
1073
330
CAD
100
AcDbEntity
  8
laserbed
100
AcDbPolyline
 90
        2
 70
     0
 43
0.0
 10
460.0
 20
0.0
 10
460.0
 20
12.7
  0
LWPOLYLINE
  5
1074
330
CAD
100
AcDbEntity
  8
laserbed
100
AcDbPolyline
 90
        2
 70
     0
 43
0.0
 10
470.0
 20
0.0
 10
470.0
 20
12.7
  0
LWPOLYLINE
  5
1075
330
CAD
100
AcDbEntity
  8
laserbed
100
AcDbPolyline
 90
        2
 70
     0
 43
0.0
 10
480.0
 20
0.0
 10
480.0
 20
12.7
  0
LWPOLYLINE
  5
1076
330
CAD
100
AcDbEntity
  8
laserbed
100
AcDbPolyline
 90
        2
 70
     0
 43
0.0
 10
490.0
 20
0.0
 10
490.0
 20
12.7
  0
LWPOLYLINE
  5
1077
330
CAD
100
AcDbEntity
  8
laserbed
100
AcDbPolyline
 90
        2
 70
     0
 43
0.0
 10
500.0
 20
0.0
 10
500.0
 20
12.7
  0
TEXT
  5
1078
330
CAD
100
AcDbEntity
  8
laserbed
100
AcDbText
 10
488.1593724420191
 20
15.23999999999999
 30
0.0
 40
10.16
  1
500
 72
     1
 11
500.0
 21
15.23999999999999
 31
0.0
100
AcDbText
  0
LWPOLYLINE
  5
1079
330
CAD
100
AcDbEntity
  8
laserbed
100
AcDbPolyline
 90
        2
 70
     0
 43
0.0
 10
510.0
 20
0.0
 10
510.0
 20
12.7
  0
LWPOLYLINE
  5
107A
330
CAD
100
AcDbEntity
  8
laserbed
100
AcDbPolyline
 90
        2
 70
     0
 43
0.0
 10
520.0
 20
0.0
 10
520.0
 20
12.7
  0
LWPOLYLINE
  5
107B
330
CAD
100
AcDbEntity
  8
laserbed
100
AcDbPolyline
 90
        2
 70
     0
 43
0.0
 10
530.0
 20
0.0
 10
530.0
 20
12.7
  0
LWPOLYLINE
  5
107C
330
CAD
100
AcDbEntity
  8
laserbed
100
AcDbPolyline
 90
        2
 70
     0
 43
0.0
 10
540.0
 20
0.0
 10
540.0
 20
12.7
  0
LWPOLYLINE
  5
107D
330
CAD
100
AcDbEntity
  8
laserbed
100
AcDbPolyline
 90
        2
 70
     0
 43
0.0
 10
550.0
 20
0.0
 10
550.0
 20
12.7
  0
TEXT
  5
107E
330
CAD
100
AcDbEntity
  8
laserbed
100
AcDbText
 10
538.1593724420191
 20
15.23999999999999
 30
0.0
 40
10.16
  1
550
 72
     1
 11
550.0
 21
15.23999999999999
 31
0.0
100
AcDbText
  0
LWPOLYLINE
  5
107F
330
CAD
100
AcDbEntity
  8
laserbed
100
AcDbPolyline
 90
        2
 70
     0
 43
0.0
 10
560.0
 20
0.0
 10
560.0
 20
12.7
  0
LWPOLYLINE
  5
1080
330
CAD
100
AcDbEntity
  8
laserbed
100
AcDbPolyline
 90
        2
 70
     0
 43
0.0
 10
570.0
 20
0.0
 10
570.0
 20
12.7
  0
LWPOLYLINE
  5
1081
330
CAD
100
AcDbEntity
  8
laserbed
100
AcDbPolyline
 90
        2
 70
     0
 43
0.0
 10
580.0
 20
0.0
 10
580.0
 20
12.7
  0
LWPOLYLINE
  5
1082
330
CAD
100
AcDbEntity
  8
laserbed
100
AcDbPolyline
 90
        2
 70
     0
 43
0.0
 10
590.0
 20
0.0
 10
590.0
 20
12.7
  0
LWPOLYLINE
  5
1083
330
CAD
100
AcDbEntity
  8
laserbed
100
AcDbPolyline
 90
        2
 70
     0
 43
0.0
 10
600.0
 20
0.0
 10
600.0
 20
12.7
  0
TEXT
  5
1084
330
CAD
100
AcDbEntity
  8
laserbed
100
AcDbText
 10
588.1593724420191
 20
15.23999999999999
 30
0.0
 40
10.16
  1
600
 72
     1
 11
600.0
 21
15.23999999999999
 31
0.0
100
AcDbText
  0
LWPOLYLINE
  5
1085
330
CAD
100
AcDbEntity
  8
laserbed
100
AcDbPolyline
 90
        2
 70
     0
 43
0.0
 10
0.0
 20
-9.999999999999943
 10
-12.70000000000002
 20
-9.999999999999943
  0
TEXT
  5
1086
330
CAD
100
AcDbEntity
  8
laserbed
100
AcDbText
 10
-15.23999999999998
 20
-18.76005457025916
 30
0.0
 40
10.16
  1
10
 50
90.0
 72
     1
 11
-15.23999999999998
 21
-10.86630286493855
 31
0.0
100
AcDbText
  0
LWPOLYLINE
  5
1087
330
CAD
100
AcDbEntity
  8
laserbed
100
AcDbPolyline
 90
        2
 70
     0
 43
0.0
 10
0.0
 20
-19.99999999999994
 10
-12.70000000000002
 20
-19.99999999999994
  0
LWPOLYLINE
  5
1088
330
CAD
100
AcDbEntity
  8
laserbed
100
AcDbPolyline
 90
        2
 70
     0
 43
0.0
 10
0.0
 20
-29.99999999999995
 10
-12.70000000000002
 20
-29.99999999999995
  0
LWPOLYLINE
  5
1089
330
CAD
100
AcDbEntity
  8
laserbed
100
AcDbPolyline
 90
        2
 70
     0
 43
0.0
 10
-0.0000000000000568
 20
-39.99999999999995
 10
-12.70000000000002
 20
-39.99999999999995
  0
LWPOLYLINE
  5
108A
330
CAD
100
AcDbEntity
  8
laserbed
100
AcDbPolyline
 90
        2
 70
     0
 43
0.0
 10
-0.0000000000000568
 20
-49.99999999999994
 10
-12.70000000000004
 20
-49.99999999999994
  0
TEXT
  5
108B
330
CAD
100
AcDbEntity
  8
laserbed
100
AcDbText
 10
-15.24000000000001
 20
-57.80365620736692
 30
0.0
 40
10.16
  1
50
 50
90.0
 72
     1
 11
-15.24000000000001
 21
-49.90990450204633
 31
0.0
100
AcDbText
  0
LWPOLYLINE
  5
108C
330
CAD
100
AcDbEntity
  8
laserbed
100
AcDbPolyline
 90
        2
 70
     0
 43
0.0
 10
-0.0000000000000568
 20
-59.99999999999994
 10
-12.70000000000004
 20
-59.99999999999994
  0
LWPOLYLINE
  5
108D
330
CAD
100
AcDbEntity
  8
laserbed
100
AcDbPolyline
 90
        2
 70
     0
 43
0.0
 10
-0.0000000000000568
 20
-69.99999999999994
 10
-12.70000000000004
 20
-69.99999999999994
  0
LWPOLYLINE
  5
108E
330
CAD
100
AcDbEntity
  8
laserbed
100
AcDbPolyline
 90
        2
 70
     0
 43
0.0
 10
-0.0000000000000568
 20
-79.99999999999994
 10
-12.70000000000004
 20
-79.99999999999994
  0
LWPOLYLINE
  5
108F
330
CAD
100
AcDbEntity
  8
laserbed
100
AcDbPolyline
 90
        2
 70
     0
 43
0.0
 10
-0.0000000000000568
 20
-89.99999999999994
 10
-12.70000000000004
 20
-89.99999999999994
  0
LWPOLYLINE
  5
1090
330
CAD
100
AcDbEntity
  8
laserbed
100
AcDbPolyline
 90
        2
 70
     0
 43
0.0
 10
-0.0000000000000568
 20
-99.99999999999994
 10
-12.70000000000007
 20
-99.99999999999994
  0
TEXT
  5
1091
330
CAD
100
AcDbEntity
  8
laserbed
100
AcDbText
 10
-15.24000000000004
 20
-112.7069304229194
 30
0.0
 40
10.16
  1
100
 50
90.0
 72
     1
 11
-15.24000000000004
 21
-100.8663028649385
 31
0.0
100
AcDbText
  0
LWPOLYLINE
  5
1092
330
CAD
100
AcDbEntity
  8
laserbed
100
AcDbPolyline
 90
        2
 70
     0
 43
0.0
 10
-0.0000000000000568
 20
-109.9999999999999
 10
-12.70000000000007
 20
-109.9999999999999
  0
LWPOLYLINE
  5
1093
330
CAD
100
AcDbEntity
  8
laserbed
100
AcDbPolyline
 90
        2
 70
     0
 43
0.0
 10
-0.0000000000000568
 20
-119.9999999999999
 10
-12.70000000000007
 20
-119.9999999999999
  0
LWPOLYLINE
  5
1094
330
CAD
100
AcDbEntity
  8
laserbed
100
AcDbPolyline
 90
        2
 70
     0
 43
0.0
 10
-0.0000000000001137
 20
-129.9999999999999
 10
-12.70000000000007
 20
-129.9999999999999
  0
LWPOLYLINE
  5
1095
330
CAD
100
AcDbEntity
  8
laserbed
100
AcDbPolyline
 90
        2
 70
     0
 43
0.0
 10
-0.0000000000001137
 20
-139.9999999999999
 10
-12.7000000000001
 20
-139.9999999999999
  0
LWPOLYLINE
  5
1096
330
CAD
100
AcDbEntity
  8
laserbed
100
AcDbPolyline
 90
        2
 70
     0
 43
0.0
 10
-0.0000000000001137
 20
-149.9999999999999
 10
-12.7000000000001
 20
-149.9999999999999
  0
TEXT
  5
1097
330
CAD
100
AcDbEntity
  8
laserbed
100
AcDbText
 10
-15.24000000000006
 20
-162.7069304229194
 30
0.0
 40
10.16
  1
150
 50
90.0
 72
     1
 11
-15.24000000000006
 21
-150.8663028649385
 31
0.0
100
AcDbText
  0
LWPOLYLINE
  5
1098
330
CAD
100
AcDbEntity
  8
laserbed
100
AcDbPolyline
 90
        2
 70
     0
 43
0.0
 10
-0.0000000000001137
 20
-159.9999999999999
 10
-12.7000000000001
 20
-159.9999999999999
  0
LWPOLYLINE
  5
1099
330
CAD
100
AcDbEntity
  8
laserbed
100
AcDbPolyline
 90
        2
 70
     0
 43
0.0
 10
-0.0000000000001137
 20
-169.9999999999999
 10
-12.7000000000001
 20
-169.9999999999999
  0
LWPOLYLINE
  5
109A
330
CAD
100
AcDbEntity
  8
laserbed
100
AcDbPolyline
 90
        2
 70
     0
 43
0.0
 10
-0.0000000000001137
 20
-179.9999999999999
 10
-12.70000000000013
 20
-179.9999999999999
  0
LWPOLYLINE
  5
109B
330
CAD
100
AcDbEntity
  8
laserbed
100
AcDbPolyline
 90
        2
 70
     0
 43
0.0
 10
-0.0000000000001137
 20
-189.9999999999998
 10
-12.70000000000013
 20
-189.9999999999998
  0
LWPOLYLINE
  5
109C
330
CAD
100
AcDbEntity
  8
laserbed
100
AcDbPolyline
 90
        2
 70
     0
 43
0.0
 10
-0.0000000000001137
 20
-199.9999999999999
 10
-12.70000000000013
 20
-199.9999999999999
  0
TEXT
  5
109D
330
CAD
100
AcDbEntity
  8
laserbed
100
AcDbText
 10
-15.24000000000012
 20
-211.5772714870395
 30
0.0
 40
10.16
  1
200
 50
90.0
 72
     1
 11
-15.24000000000012
 21
-199.7366439290585
 31
0.0
100
AcDbText
  0
LWPOLYLINE
  5
109E
330
CAD
100
AcDbEntity
  8
laserbed
100
AcDbPolyline
 90
        2
 70
     0
 43
0.0
 10
-0.0000000000001137
 20
-209.9999999999999
 10
-12.70000000000013
 20
-209.9999999999999
  0
LWPOLYLINE
  5
109F
330
CAD
100
AcDbEntity
  8
laserbed
100
AcDbPolyline
 90
        2
 70
     0
 43
0.0
 10
-0.0000000000001705
 20
-219.9999999999999
 10
-12.70000000000016
 20
-219.9999999999999
  0
LWPOLYLINE
  5
10A0
330
CAD
100
AcDbEntity
  8
laserbed
100
AcDbPolyline
 90
        2
 70
     0
 43
0.0
 10
-0.0000000000001705
 20
-229.9999999999999
 10
-12.70000000000016
 20
-229.9999999999999
  0
LWPOLYLINE
  5
10A1
330
CAD
100
AcDbEntity
  8
laserbed
100
AcDbPolyline
 90
        2
 70
     0
 43
0.0
 10
-0.0000000000001705
 20
-239.9999999999999
 10
-12.70000000000016
 20
-239.9999999999999
  0
LWPOLYLINE
  5
10A2
330
CAD
100
AcDbEntity
  8
laserbed
100
AcDbPolyline
 90
        2
 70
     0
 43
0.0
 10
-0.0000000000001705
 20
-249.9999999999999
 10
-12.70000000000016
 20
-249.9999999999999
  0
TEXT
  5
10A3
330
CAD
100
AcDbEntity
  8
laserbed
100
AcDbText
 10
-15.24000000000015
 20
-261.5772714870395
 30
0.0
 40
10.16
  1
250
 50
90.0
 72
     1
 11
-15.24000000000015
 21
-249.7366439290586
 31
0.0
100
AcDbText
  0
LWPOLYLINE
  5
10A4
330
CAD
100
AcDbEntity
  8
laserbed
100
AcDbPolyline
 90
        2
 70
     0
 43
0.0
 10
-0.0000000000001705
 20
-259.9999999999999
 10
-12.70000000000016
 20
-259.9999999999999
  0
LWPOLYLINE
  5
10A5
330
CAD
100
AcDbEntity
  8
laserbed
100
AcDbPolyline
 90
        2
 70
     0
 43
0.0
 10
-0.0000000000001705
 20
-269.9999999999999
 10
-12.70000000000019
 20
-269.9999999999999
  0
LWPOLYLINE
  5
10A6
330
CAD
100
AcDbEntity
  8
laserbed
100
AcDbPolyline
 90
        2
 70
     0
 43
0.0
 10
-0.0000000000001705
 20
-279.9999999999999
 10
-12.70000000000019
 20
-279.9999999999999
  0
LWPOLYLINE
  5
10A7
330
CAD
100
AcDbEntity
  8
laserbed
100
AcDbPolyline
 90
        2
 70
     0
 43
0.0
 10
-0.0000000000001705
 20
-289.9999999999999
 10
-12.70000000000019
 20
-289.9999999999999
  0
LWPOLYLINE
  5
10A8
330
CAD
100
AcDbEntity
  8
laserbed
100
AcDbPolyline
 90
        2
 70
     0
 43
0.0
 10
-0.0000000000002274
 20
-299.9999999999999
 10
-12.70000000000019
 20
-299.9999999999999
  0
TEXT
  5
10A9
330
CAD
100
AcDbEntity
  8
laserbed
100
AcDbText
 10
-15.24000000000018
 20
-311.7574624829466
 30
0.0
 40
10.16
  1
300
 50
90.0
 72
     1
 11
-15.24000000000018
 21
-299.9168349249657
 31
0.0
100
AcDbText
  0
LWPOLYLINE
  5
10AA
330
CAD
100
AcDbEntity
  8
laserbed
100
AcDbPolyline
 90
        4
 70
     1
 43
0.0
 10
0.0
 20
0.0
 10
1200.0
 20
0.0
 10
1200.0
 20
-900.0
 10
0.0
 20
-900.0
  0
TEXT
  5
10AB
330
CAD
100
AcDbEntity
  8
laserbed
100
AcDbText
 10
1118.345757162346
 20
-915.9692620378606
 30
0.0
 40
10.16
  1
large laser Weike LC1290
 72
     1
 11
1200.0
 21
-915.9692620378606
 31
0.0
100
AcDbText
  0
LWPOLYLINE
  5
10AC
330
CAD
100
AcDbEntity
  8
laserbed
100
AcDbPolyline
 90
        2
 70
     0
 43
0.0
 10
700.0
 20
0.0
 10
700.0
 20
12.7
  0
TEXT
  5
10AD
330
CAD
100
AcDbEntity
  8
laserbed
100
AcDbText
 10
688.1593724420191
 20
15.23999999999999
 30
0.0
 40
10.16
  1
700
 72
     1
 11
700.0
 21
15.23999999999999
 31
0.0
100
AcDbText
  0
LWPOLYLINE
  5
10AE
330
CAD
100
AcDbEntity
  8
laserbed
100
AcDbPolyline
 90
        2
 70
     0
 43
0.0
 10
800.0
 20
0.0
 10
800.0
 20
12.7
  0
TEXT
  5
10AF
330
CAD
100
AcDbEntity
  8
laserbed
100
AcDbText
 10
788.1593724420191
 20
15.23999999999999
 30
0.0
 40
10.16
  1
800
 72
     1
 11
800.0
 21
15.23999999999999
 31
0.0
100
AcDbText
  0
LWPOLYLINE
  5
10B0
330
CAD
100
AcDbEntity
  8
laserbed
100
AcDbPolyline
 90
        2
 70
     0
 43
0.0
 10
900.0
 20
0.0
 10
900.0
 20
12.7
  0
TEXT
  5
10B1
330
CAD
100
AcDbEntity
  8
laserbed
100
AcDbText
 10
888.159372442019
 20
15.23999999999999
 30
0.0
 40
10.16
  1
900
 72
     1
 11
900.0
 21
15.23999999999999
 31
0.0
100
AcDbText
  0
LWPOLYLINE
  5
10B2
330
CAD
100
AcDbEntity
  8
laserbed
100
AcDbPolyline
 90
        2
 70
     0
 43
0.0
 10
1000.0
 20
0.0
 10
1000.0
 20
12.7
  0
TEXT
  5
10B3
330
CAD
100
AcDbEntity
  8
laserbed
100
AcDbText
 10
984.2124965893587
 20
15.23999999999999
 30
0.0
 40
10.16
  1
1000
 72
     1
 11
1000.0
 21
15.23999999999999
 31
0.0
100
AcDbText
  0
LWPOLYLINE
  5
10B4
330
CAD
100
AcDbEntity
  8
laserbed
100
AcDbPolyline
 90
        2
 70
     0
 43
0.0
 10
1100.0
 20
0.0
 10
1100.0
 20
12.7
  0
TEXT
  5
10B5
330
CAD
100
AcDbEntity
  8
laserbed
100
AcDbText
 10
1084.212496589358
 20
15.23999999999999
 30
0.0
 40
10.16
  1
1100
 72
     1
 11
1100.0
 21
15.23999999999999
 31
0.0
100
AcDbText
  0
LWPOLYLINE
  5
10B6
330
CAD
100
AcDbEntity
  8
laserbed
100
AcDbPolyline
 90
        2
 70
     0
 43
0.0
 10
1200.0
 20
0.0
 10
1200.0
 20
12.7
  0
TEXT
  5
10B7
330
CAD
100
AcDbEntity
  8
laserbed
100
AcDbText
 10
1184.212496589359
 20
15.23999999999999
 30
0.0
 40
10.16
  1
1200
 72
     1
 11
1200.0
 21
15.23999999999999
 31
0.0
100
AcDbText
  0
LWPOLYLINE
  5
10B8
330
CAD
100
AcDbEntity
  8
laserbed
100
AcDbPolyline
 90
        2
 70
     0
 43
0.0
 10
-0.0000000000003411
 20
-399.9999999999999
 10
-12.7000000000003
 20
-399.9999999999999
  0
TEXT
  5
10B9
330
CAD
100
AcDbEntity
  8
laserbed
100
AcDbText
 10
-15.24000000000029
 20
-411.7574624829465
 30
0.0
 40
10.16
  1
400
 50
90.0
 72
     1
 11
-15.24000000000029
 21
-399.9168349249657
 31
0.0
100
AcDbText
  0
LWPOLYLINE
  5
10BA
330
CAD
100
AcDbEntity
  8
laserbed
100
AcDbPolyline
 90
        2
 70
     0
 43
0.0
 10
-0.0000000000004547
 20
-499.9999999999999
 10
-12.70000000000041
 20
-499.9999999999999
  0
TEXT
  5
10BB
330
CAD
100
AcDbEntity
  8
laserbed
100
AcDbText
 10
-15.24000000000041
 20
-511.7574624829465
 30
0.0
 40
10.16
  1
500
 50
90.0
 72
     1
 11
-15.24000000000041
 21
-499.9168349249656
 31
0.0
100
AcDbText
  0
LWPOLYLINE
  5
10BC
330
CAD
100
AcDbEntity
  8
laserbed
100
AcDbPolyline
 90
        2
 70
     0
 43
0.0
 10
-0.0000000000005684
 20
-599.9999999999999
 10
-12.70000000000053
 20
-599.9999999999999
  0
TEXT
  5
10BD
330
CAD
100
AcDbEntity
  8
laserbed
100
AcDbText
 10
-15.24000000000052
 20
-611.7574624829465
 30
0.0
 40
10.16
  1
600
 50
90.0
 72
     1
 11
-15.24000000000052
 21
-599.9168349249656
 31
0.0
100
AcDbText
  0
LWPOLYLINE
  5
10BE
330
CAD
100
AcDbEntity
  8
laserbed
100
AcDbPolyline
 90
        2
 70
     0
 43
0.0
 10
-0.0000000000006821
 20
-699.9999999999999
 10
-12.70000000000064
 20
-699.9999999999999
  0
TEXT
  5
10BF
330
CAD
100
AcDbEntity
  8
laserbed
100
AcDbText
 10
-15.24000000000063
 20
-711.7574624829465
 30
0.0
 40
10.16
  1
700
 50
90.0
 72
     1
 11
-15.24000000000063
 21
-699.9168349249656
 31
0.0
100
AcDbText
  0
LWPOLYLINE
  5
10C0
330
CAD
100
AcDbEntity
  8
laserbed
100
AcDbPolyline
 90
        2
 70
     0
 43
0.0
 10
-0.0000000000007958
 20
-799.9999999999999
 10
-12.70000000000075
 20
-799.9999999999999
  0
TEXT
  5
10C1
330
CAD
100
AcDbEntity
  8
laserbed
100
AcDbText
 10
-15.24000000000075
 20
-811.7574624829465
 30
0.0
 40
10.16
  1
800
 50
90.0
 72
     1
 11
-15.24000000000075
 21
-799.9168349249656
 31
0.0
100
AcDbText
  0
LWPOLYLINE
  5
10C2
330
CAD
100
AcDbEntity
  8
laserbed
100
AcDbPolyline
 90
        2
 70
     0
 43
0.0
 10
-0.0000000000009095
 20
-899.9999999999998
 10
-12.70000000000087
 20
-899.9999999999998
  0
TEXT
  5
10C3
330
CAD
100
AcDbEntity
  8
laserbed
100
AcDbText
 10
-15.24000000000086
 20
-911.7574624829465
 30
0.0
 40
10.16
  1
900
 50
90.0
 72
     1
 11
-15.24000000000086
 21
-899.9168349249655
 31
0.0
100
AcDbText
  0
LWPOLYLINE
  5
10C4
330
CAD
100
AcDbEntity
  8
0
100
AcDbPolyline
 90
        4
 70
     1
 43
0.0
 10
0.0
 20
0.0
 10
812.8
 20
0.0
 10
812.8
 20
-457.2
 10
0.0
 20
-457.2
  0
TEXT
  5
10C5
330
CAD
100
AcDbEntity
  8
laserbed
100
AcDbText
 10
732.3169986357434
 20
-473.1692620378606
 30
0.0
 40
10.16
  1
big blue laser PLS6.150D
 72
     1
 11
812.8
 21
-473.1692620378606
 31
0.0
100
AcDbText
  0
TEXT
  5
10C9
330
CAD
100
AcDbEntity
  8
laserbed
100
AcDbText
 10
387.081446111869
 20
68.51019264245798
 30
0.0
 40
10.16
  1
Metric
 72
     1
 11
406.4
 21
68.51019264245798
 31
0.0
100
AcDbText
  0
ENDBLK
  5
CAF
330
CAD
100
AcDbEntity
  8
0
100
AcDbBlockEnd
  0
BLOCK
  5
F10
330
F0F
100
AcDbEntity
  8
0
100
AcDbBlockBegin
  2
sample
 70
     0
 10
0.0
 20
0.0
 30
0.0
  3
sample
  1

  0
CIRCLE
  5
F12
330
F0F
100
AcDbEntity
  8
cut
100
AcDbCircle
 10
37.5
 20
-46.65063509461094
 30
0.0
 40
3.125
  0
CIRCLE
  5
F13
330
F0F
100
AcDbEntity
  8
raster
100
AcDbCircle
 10
37.5
 20
-46.65063509461094
 30
0.0
 40
6.25
  0
CIRCLE
  5
F14
330
F0F
100
AcDbEntity
  8
cut
100
AcDbCircle
 10
50.0
 20
-25.0
 30
0.0
 40
6.25
  0
CIRCLE
  5
F15
330
F0F
100
AcDbEntity
  8
raster
100
AcDbCircle
 10
50.0
 20
-25.0
 30
0.0
 40
9.375
  0
CIRCLE
  5
F16
330
F0F
100
AcDbEntity
  8
cut
100
AcDbCircle
 10
25.0
 20
-25.0
 30
0.0
 40
6.25
  0
CIRCLE
  5
F17
330
F0F
100
AcDbEntity
  8
raster
100
AcDbCircle
 10
25.0
 20
-25.0
 30
0.0
 40
9.375
  0
LWPOLYLINE
  5
F18
330
F0F
100
AcDbEntity
  8
cut
100
AcDbPolyline
 90
        8
 70
     1
 43
0.0
 10
4.99999999999909
 20
0.0
 10
70.0
 20
0.0
 42
-0.4142135623730951
 10
75.0
 20
-5.0
 10
75.0
 20
-70.00000000000003
 42
-0.4142135623730951
 10
70.0
 20
-75.0
 10
4.99999999999909
 20
-75.0
 42
-0.4142135623730951
 10
0.0
 20
-70.00000000000003
 10
0.0
 20
-5.0
 42
-0.4142135623730951
  0
MTEXT
  5
F19
102
{ACAD_XDICTIONARY
360
F1A
102
}
330
F0F
100
AcDbEntity
  8
raster
100
AcDbMText
 10
37.49999999999955
 20
-58.20833220057545
 30
0.0
 40
5.0
 41
71.17404847731359
 46
0.0
 71
     2
 72
     5
  1
Line Example
 73
     1
 44
1.0
101
Embedded Object
 70
     2
 10
1.0
 20
0.0
 30
0.0
 11
37.49999999999955
 21
-58.20833220057545
 31
0.0
 40
71.17404847731359
 41
0.0
 42
41.52114597544339
 43
6.388130968622101
 71
     2
 72
     1
 44
71.17404847731359
 45
1.0
 73
     0
 74
     0
 46
0.0
  0
LWPOLYLINE
  5
F1B
330
F0F
100
AcDbEntity
  8
score
100
AcDbPolyline
 90
        2
 70
     0
 43
0.0
 10
25.0
 20
-18.75
 10
25.0
 20
-7.350401558311148
  0
LWPOLYLINE
  5
F1C
330
F0F
100
AcDbEntity
  8
score
100
AcDbPolyline
 90
        4
 70
     0
 43
0.0
 10
50.0
 20
-18.75
 10
50.0
 20
-18.75
 10
50.0
 20
-7.350401558311148
 10
25.0
 20
-7.350401558311148
  0
LWPOLYLINE
  5
F1D
330
F0F
100
AcDbEntity
  8
score
100
AcDbPolyline
 90
        2
 70
     0
 43
0.0
 10
37.5
 20
-7.350401558311148
 10
37.5
 20
-43.52563509461094
  0
ENDBLK
  5
F11
330
F0F
100
AcDbEntity
  8
0
100
AcDbBlockEnd
  0
ENDSEC
  0
SECTION
  2
ENTITIES
  0
INSERT
  5
B89
330
1F
100
AcDbEntity
  8
laserbed
100
AcDbBlockReference
  2
laserbeds imperial
 10
0.0
 20
0.0
 30
0.0
  0
INSERT
  5
D22
330
1F
100
AcDbEntity
  8
laserbed
100
AcDbBlockReference
  2
laserbeds metric
 10
258.8446263310073
 20
0.0
 30
0.0
  0
INSERT
  5
F1E
330
1F
100
AcDbEntity
  8
laserbed
100
AcDbBlockReference
  2
sample
 10
263.8338188641101
 20
160.274243461304
 30
0.0
  0
INSERT
  5
F1F
330
1F
100
AcDbEntity
  8
laserbed
100
AcDbBlockReference
  2
sample
 10
0.1964249091636608
 20
6.310009787011019
 30
0.0
 41
0.03937008
 42
0.03937008
 43
0.03937008
  0
ENDSEC
  0
SECTION
  2
OBJECTS
  0
DICTIONARY
  5
C
330
0
100
AcDbDictionary
281
     1
  3
ACAD_BACKGROUND
350
3D4
  3
ACAD_CIP_PREVIOUS_PRODUCT_INFO
350
1A5
  3
ACAD_COLOR
350
73
  3
ACAD_DETAILVIEWSTYLE
350
1AB
  3
ACAD_GROUP
350
D
  3
ACAD_IMAGE_DICT
350
86E
  3
ACAD_IMAGE_VARS
350
86F
  3
ACAD_LAYOUT
350
1A
  3
ACAD_MATERIAL
350
72
  3
ACAD_MLEADERSTYLE
350
D7
  3
ACAD_MLINESTYLE
350
17
  3
ACAD_PLOTSETTINGS
350
19
  3
ACAD_PLOTSTYLENAME
350
E
  3
ACAD_SCALELIST
350
B6
  3
ACAD_SECTIONVIEWSTYLE
350
1A8
  3
ACAD_TABLESTYLE
350
86
  3
ACAD_VISUALSTYLE
350
99
  3
ACDB_RECOMPOSE_DATA
350
1189
  3
AcDbVariableDictionary
350
66
  0
DICTIONARY
  5
18E
330
2
100
AcDbDictionary
280
     1
281
     1
  3
ACAD_LAYERSTATES
360
18F
  0
DICTIONARY
  5
E6
330
10
100
AcDbDictionary
280
     1
281
     1
  0
DICTIONARY
  5
15D
330
1F
100
AcDbDictionary
280
     1
281
     1
  3
ACAD_SORTENTS
360
27B
  0
DICTIONARY
  5
39A
330
2C0
100
AcDbDictionary
280
     1
281
     1
  3
ACAD_ENHANCEDBLOCK
360
39B
  3
ACAD_SORTENTS
360
3A2
  3
AcDbDynamicBlockRoundTripPurgePreventer
360
448
  0
DICTIONARY
  5
111B
330
B40
100
AcDbDictionary
280
     1
281
     1
  3
ACAD_SORTENTS
360
111C
  0
DICTIONARY
  5
10C6
330
CAD
100
AcDbDictionary
280
     1
281
     1
  0
DICTIONARY
  5
8ED
330
882
100
AcDbDictionary
280
     1
281
     1
  0
DICTIONARY
  5
F1A
330
F19
100
AcDbDictionary
280
     1
281
     1
  0
DICTIONARY
  5
3D4
102
{ACAD_REACTORS
330
C
102
}
330
C
100
AcDbDictionary
281
     1
  0
XRECORD
  5
1A5
102
{ACAD_REACTORS
330
C
102
}
330
C
100
AcDbXrecord
280
     1
300
ACD
300
2018
300

  0
DICTIONARY
  5
73
102
{ACAD_REACTORS
330
C
102
}
330
C
100
AcDbDictionary
281
     1
  0
DICTIONARY
  5
1AB
102
{ACAD_REACTORS
330
C
102
}
330
C
100
AcDbDictionary
281
     1
  3
Imperial24
350
1AC
  0
DICTIONARY
  5
D
102
{ACAD_REACTORS
330
C
102
}
330
C
100
AcDbDictionary
281
     1
  0
DICTIONARY
  5
86E
102
{ACAD_REACTORS
330
C
102
}
330
C
100
AcDbDictionary
281
     1
  3
coaic
350
870
  0
RASTERVARIABLES
  5
86F
102
{ACAD_REACTORS
330
C
102
}
330
C
100
AcDbRasterVariables
 90
        0
 70
     1
 71
     1
 72
     5
  0
DICTIONARY
  5
1A
102
{ACAD_REACTORS
330
C
102
}
330
C
100
AcDbDictionary
281
     1
  3
Layout1
350
59
  3
Layout2
350
5E
  3
Model
350
22
  0
DICTIONARY
  5
72
102
{ACAD_REACTORS
330
C
102
}
330
C
100
AcDbDictionary
281
     1
  3
ByBlock
350
97
  3
ByLayer
350
96
  3
Global
350
98
  0
DICTIONARY
  5
D7
102
{ACAD_REACTORS
330
C
102
}
330
C
100
AcDbDictionary
281
     1
  3
Annotative
350
E5
  3
Standard
350
D8
  0
DICTIONARY
  5
17
102
{ACAD_REACTORS
330
C
102
}
330
C
100
AcDbDictionary
281
     1
  3
Standard
350
18
  0
DICTIONARY
  5
19
102
{ACAD_REACTORS
330
C
102
}
330
C
100
AcDbDictionary
281
     1
  3
Green Laser VLS3.60
350
D57
  0
ACDBDICTIONARYWDFLT
  5
E
102
{ACAD_REACTORS
330
C
102
}
330
C
100
AcDbDictionary
281
     1
  3
Normal
350
F
100
AcDbDictionaryWithDefault
340
F
  0
DICTIONARY
  5
B6
102
{ACAD_REACTORS
330
C
102
}
330
C
100
AcDbDictionary
281
     1
  3
A0
350
B7
  3
A1
350
124
  3
A2
350
125
  3
A3
350
126
  3
A4
350
127
  3
A5
350
128
  3
A6
350
129
  3
A7
350
12A
  3
A8
350
12B
  3
A9
350
12C
  3
B0
350
12D
  3
B1
350
12E
  3
B2
350
12F
  3
B3
350
130
  3
B4
350
131
  3
B5
350
132
  3
B6
350
133
  3
B7
350
134
  3
B8
350
135
  3
B9
350
136
  3
C0
350
137
  3
C1
350
138
  3
C2
350
139
  3
C3
350
13A
  3
C4
350
13B
  3
C5
350
13C
  3
C6
350
13D
  3
C7
350
13E
  3
C8
350
13F
  3
C9
350
140
  3
D0
350
141
  3
D1
350
142
  3
D2
350
143
  0
DICTIONARY
  5
1A8
102
{ACAD_REACTORS
330
C
102
}
330
C
100
AcDbDictionary
281
     1
  3
Imperial24
350
1AA
  0
DICTIONARY
  5
86
102
{ACAD_REACTORS
330
C
102
}
330
C
100
AcDbDictionary
281
     1
  3
Standard
350
87
  0
DICTIONARY
  5
99
102
{ACAD_REACTORS
330
C
102
}
330
C
100
AcDbDictionary
281
     1
  3
2dWireframe
350
9F
  3
Basic
350
9E
  3
Brighten
350
A5
  3
ColorChange
350
A9
  3
Conceptual
350
A2
  3
Dim
350
A4
  3
EdgeColorOff
350
175
  3
Facepattern
350
A8
  3
Flat
350
9A
  3
FlatWithEdges
350
9B
  3
Gouraud
350
9C
  3
GouraudWithEdges
350
9D
  3
Hidden
350
A1
  3
JitterOff
350
173
  3
Linepattern
350
A7
  3
OverhangOff
350
174
  3
Realistic
350
A3
  3
Shaded
350
182
  3
Shaded with edges
350
181
  3
Shades of Gray
350
17E
  3
Sketchy
350
17F
  3
Thicken
350
A6
  3
Wireframe
350
A0
  3
X-Ray
350
180
  0
XRECORD
  5
1189
102
{ACAD_REACTORS
330
C
102
}
330
C
100
AcDbXrecord
280
     1
 90
        1
330
87
  0
DICTIONARY
  5
66
102
{ACAD_REACTORS
330
C
102
}
330
C
100
AcDbDictionary
281
     1
  3
CANNOSCALE
350
F0
  3
CMLEADERSTYLE
350
EF
  3
CTABLESTYLE
350
89
  3
CVIEWDETAILSTYLE
350
1B7
  3
CVIEWSECTIONSTYLE
350
1B8
  3
DIMASSOC
350
67
  3
HIDETEXT
350
6B
  3
LAYEREVAL
350
14D
  3
LAYERNOTIFY
350
14E
  0
DICTIONARY
  5
18F
102
{ACAD_REACTORS
330
18E
102
}
330
18E
100
AcDbDictionary
281
     1
  0
SORTENTSTABLE
  5
27B
102
{ACAD_REACTORS
330
15D
102
}
330
15D
100
AcDbSortentsTable
330
1F
331
B89
  5
B89
  0
ACAD_EVALUATION_GRAPH
  5
39B
102
{ACAD_REACTORS
330
39A
102
}
330
39A
100
AcDbEvalGraph
 96
        2
 97
        2
 91
        0
 93
       32
 95
        2
360
39C
 92
       -1
 92
       -1
 92
       -1
 92
       -1
  0
SORTENTSTABLE
  5
3A2
102
{ACAD_REACTORS
330
39A
102
}
330
39A
100
AcDbSortentsTable
330
2C0
331
360
  5
361
331
370
  5
373
331
361
  5
362
331
371
  5
376
331
381
  5
387
331
362
  5
363
331
372
  5
377
331
363
  5
364
331
373
  5
378
331
364
  5
365
331
374
  5
379
331
365
  5
366
331
375
  5
37A
331
385
  5
38B
331
366
  5
369
331
376
  5
37B
331
367
  5
36A
331
377
  5
37C
331
368
  5
36B
331
388
  5
38E
331
398
  5
3A7
331
389
  5
391
331
399
  5
3A8
331
36A
  5
36D
331
38A
  5
393
331
36B
  5
36E
331
38B
  5
394
331
36C
  5
36F
331
35D
  5
35E
331
3FD
  5
35B
331
38D
  5
396
331
36E
  5
371
331
38E
  5
397
331
36F
  5
372
331
38F
  5
398
331
37F
  5
385
331
35F
  5
360
331
37E
  5
384
331
35E
  5
35F
331
37D
  5
383
331
36D
  5
370
331
38C
  5
395
331
37C
  5
382
331
35C
  5
35D
331
37B
  5
380
331
35B
  5
35C
331
37A
  5
37F
331
379
  5
37E
331
369
  5
36C
331
378
  5
37D
331
397
  5
3A6
331
387
  5
38D
331
396
  5
3A5
331
386
  5
38C
331
395
  5
3A4
331
394
  5
3A3
331
384
  5
38A
331
393
  5
3A1
331
383
  5
389
331
392
  5
3A0
331
382
  5
388
331
391
  5
39E
331
390
  5
399
331
380
  5
386
  0
ACDB_DYNAMICBLOCKPURGEPREVENTER_VERSION
  5
448
102
{ACAD_REACTORS
330
39A
102
}
330
39A
100
AcDbDynamicBlockPurgePreventer
 70
     1
  0
SORTENTSTABLE
  5
111C
102
{ACAD_REACTORS
330
111B
102
}
330
111B
100
AcDbSortentsTable
330
B40
331
10D1
  5
10D2
331
10EA
  5
10EB
331
1114
  5
1115
331
10D7
  5
10D8
331
10E0
  5
10E1
331
10E6
  5
10E7
331
1101
  5
1102
331
1107
  5
1108
331
10DA
  5
10DB
331
1118
  5
10CF
331
10D0
  5
10D1
331
10E9
  5
10EA
331
10D6
  5
10D7
331
10EF
  5
10F0
331
10FB
  5
10FC
331
10E5
  5
10E6
331
110A
  5
110B
331
10F1
  5
10F2
331
10F7
  5
10F8
331
10D9
  5
10DA
331
1112
  5
1113
331
10DF
  5
10E0
331
10E8
  5
10E9
331
10D5
  5
10D6
331
10EE
  5
10EF
331
10E4
  5
10E5
331
10F0
  5
10F1
331
10D8
  5
10D9
331
1105
  5
1106
331
10DE
  5
10DF
331
10ED
  5
10EE
331
1117
  5
1118
331
10D4
  5
10D5
331
10F9
  5
10FA
331
10E3
  5
10E4
331
10FF
  5
1100
331
10F5
  5
10F6
331
110E
  5
110F
331
1110
  5
1111
331
10DD
  5
10DE
331
10D3
  5
10D4
331
1116
  5
1117
331
10EC
  5
10ED
331
10E2
  5
10E3
331
1103
  5
1104
331
10DC
  5
10DD
331
1115
  5
1116
331
10D2
  5
10D3
331
10EB
  5
10EC
331
10E1
  5
10E2
331
10E7
  5
10E8
331
10FD
  5
10FE
331
110C
  5
110D
331
10F3
  5
10F4
331
10CF
  5
10D0
331
10DB
  5
10DC
  0
ACDBDETAILVIEWSTYLE
  5
1AC
102
{ACAD_REACTORS
330
1AB
102
}
330
1AB
100
AcDbModelDocViewStyle
 70
     0
  3
Imperial24
290
     0
300
Imperial24
 90
        0
100
AcDbDetailViewStyle
 70
     0
 71
     0
 90
        3
 71
     1
340
11
 62
   256
 40
0.24
340
0
 62
   256
 40
0.24
300

 40
0.36
280
     3
 71
     2
340
16
 90
       25
 62
   256
 71
     3
340
11
 62
   256
 40
0.24
 90
        1
 40
0.75
 90
        1
300
%<\AcVar ViewType \f "%tc1">% %<\AcVar ViewDetailId>%\PSCALE %<\AcVar ViewScale \f "%sn">%
 71
     4
340
16
 90
       25
 62
   256
340
16
 90
       25
 62
   256
280
     0
  0
IMAGEDEF
  5
870
102
{ACAD_REACTORS
330
86E
102
}
330
86E
100
AcDbRasterImageDef
 90
        0
  1
C:\Users\John Welin\Desktop\coaic.jpg
 10
97.0
 20
96.0
 11
0.0103092783505155
 21
0.0103092783505155
280
     1
281
     0
  0
LAYOUT
  5
59
102
{ACAD_REACTORS
330
1A
102
}
330
1A
100
AcDbPlotSettings
  1

  2
None
  4

  6

 40
0.0
 41
0.0
 42
0.0
 43
0.0
 44
0.0
 45
0.0
 46
0.0
 47
0.0
 48
0.0
 49
0.0
140
0.0
141
0.0
142
1.0
143
1.0
 70
   688
 72
     0
 73
     0
 74
     5
  7
C:\Users\MHUB-CAD-LOVELACE\appdata\roaming\autodesk\autocad 2017\r21.0\enu\plotters\plot styles\ULS.ctb
 75
    16
147
1.0
 76
     0
 77
     2
 78
   300
148
0.0
149
0.0
100
AcDbLayout
  1
Layout1
 70
     1
 71
     1
 10
0.0
 20
0.0
 11
12.0
 21
9.0
 12
0.0
 22
0.0
 32
0.0
 14
0.0
 24
0.0
 34
0.0
 15
0.0
 25
0.0
 35
0.0
146
0.0
 13
0.0
 23
0.0
 33
0.0
 16
1.0
 26
0.0
 36
0.0
 17
0.0
 27
1.0
 37
0.0
 76
     0
330
58
  0
LAYOUT
  5
5E
102
{ACAD_REACTORS
330
1A
102
}
330
1A
100
AcDbPlotSettings
  1

  2
None
  4

  6

 40
0.0
 41
0.0
 42
0.0
 43
0.0
 44
0.0
 45
0.0
 46
0.0
 47
0.0
 48
0.0
 49
0.0
140
0.0
141
0.0
142
1.0
143
1.0
 70
   688
 72
     0
 73
     0
 74
     5
  7
C:\Users\MHUB-CAD-LOVELACE\appdata\roaming\autodesk\autocad 2017\r21.0\enu\plotters\plot styles\ULS.ctb
 75
    16
147
1.0
 76
     0
 77
     2
 78
   300
148
0.0
149
0.0
100
AcDbLayout
  1
Layout2
 70
     1
 71
     2
 10
0.0
 20
0.0
 11
12.0
 21
9.0
 12
0.0
 22
0.0
 32
0.0
 14
0.0
 24
0.0
 34
0.0
 15
0.0
 25
0.0
 35
0.0
146
0.0
 13
0.0
 23
0.0
 33
0.0
 16
1.0
 26
0.0
 36
0.0
 17
0.0
 27
1.0
 37
0.0
 76
     0
330
5D
  0
LAYOUT
  5
22
102
{ACAD_XDICTIONARY
360
194
102
}
102
{ACAD_REACTORS
330
1A
102
}
330
1A
100
AcDbPlotSettings
  1

  2
Green Laser ULS 3.60.pc3
  4
User256
  6

 40
0.0
 41
0.0
 42
0.0
 43
0.0
 44
609.5999755859375
 45
304.7999877929687
 46
0.0
 47
0.0
 48
19.37394523620605
 49
-26.63390626013279
140
43.37394523620605
141
-14.63390626013279
142
1.0
143
1.0
 70
 11936
 72
     0
 73
     0
 74
     4
  7
C:\Users\MHUB-CAD-LOVELACE\appdata\roaming\autodesk\autocad 2017\r21.0\enu\plotters\plot styles\ULS.ctb
 75
     0
147
0.3503793398935053
 76
     0
 77
     2
 78
   300
148
-492.0982089996337
149
676.5012190073727
100
AcDbLayout
  1
Model
 70
     1
 71
     0
 10
0.0
 20
0.0
 11
12.0
 21
9.0
 12
0.0
 22
0.0
 32
0.0
 14
0.0
 24
0.0
 34
0.0
 15
0.0
 25
0.0
 35
0.0
146
0.0
 13
0.0
 23
0.0
 33
0.0
 16
1.0
 26
0.0
 36
0.0
 17
0.0
 27
1.0
 37
0.0
 76
     0
330
1F
331
94
1001
ACAD_PSEXT
1000
Green Laser ULS 3.60.pc3
1000
VLS3.60
1000
\\mhub-laser-1
1000

1070
     0
  0
MATERIAL
  5
97
102
{ACAD_XDICTIONARY
360
188
102
}
102
{ACAD_REACTORS
330
72
102
}
330
72
100
AcDbMaterial
  1
ByBlock
 94
       63
  0
MATERIAL
  5
96
102
{ACAD_XDICTIONARY
360
186
102
}
102
{ACAD_REACTORS
330
72
102
}
330
72
100
AcDbMaterial
  1
ByLayer
 94
       63
  0
MATERIAL
  5
98
102
{ACAD_XDICTIONARY
360
110
102
}
102
{ACAD_REACTORS
330
72
102
}
330
72
100
AcDbMaterial
  1
Global
 43
0.0208000000566244
 43
0.0
 43
0.0
 43
0.0
 43
0.0
 43
0.0208000000566244
 43
0.0
 43
0.0
 43
0.0
 43
0.0
 43
1.0
 43
0.0
 43
0.0
 43
0.0
 43
0.0
 43
1.0
 49
0.0208000000566244
 49
0.0
 49
0.0
 49
0.0
 49
0.0
 49
0.0208000000566244
 49
0.0
 49
0.0
 49
0.0
 49
0.0
 49
1.0
 49
0.0
 49
0.0
 49
0.0
 49
0.0
 49
1.0
142
0.0208000000566244
142
0.0
142
0.0
142
0.0
142
0.0
142
0.0208000000566244
142
0.0
142
0.0
142
0.0
142
0.0
142
1.0
142
0.0
142
0.0
142
0.0
142
0.0
142
1.0
144
0.0208000000566244
144
0.0
144
0.0
144
0.0
144
0.0
144
0.0208000000566244
144
0.0
144
0.0
144
0.0
144
0.0
144
1.0
144
0.0
144
0.0
144
0.0
144
0.0
144
1.0
 94
       63
1001
ACAD
1070
    -1
1070
     3
1070
     0
1000

1071
        0
1070
     0
  0
MLEADERSTYLE
  5
E5
102
{ACAD_REACTORS
330
D7
102
}
330
D7
100
AcDbMLeaderStyle
179
     2
170
     2
171
     1
172
     0
 90
        2
 40
0.0
 41
0.0
173
     1
 91
-1056964608
340
14
 92
       -2
290
     1
 42
0.09
291
     1
 43
0.36
  3
Standard
 44
0.18
300

342
11
174
     1
178
     1
175
     1
176
     0
 93
-1056964608
 45
0.18
292
     0
297
     0
 46
0.18
 94
-1056964608
 47
1.0
 49
1.0
140
1.0
293
     1
141
0.0
294
     1
177
     0
142
1.0
295
     0
296
     1
143
0.125
271
     0
272
     9
273
     9
298
     0
  0
MLEADERSTYLE
  5
D8
102
{ACAD_REACTORS
330
D7
102
}
330
D7
100
AcDbMLeaderStyle
179
     2
170
     2
171
     1
172
     0
 90
        2
 40
0.0
 41
0.0
173
     1
 91
-1056964608
340
14
 92
       -2
290
     1
 42
0.09
291
     1
 43
0.36
  3
Standard
 44
0.18
300

342
11
174
     1
178
     1
175
     1
176
     0
 93
-1056964608
 45
0.18
292
     0
297
     0
 46
0.18
 94
-1056964608
 47
1.0
 49
1.0
140
1.0
293
     1
141
0.0
294
     1
177
     0
142
1.0
295
     0
296
     0
143
0.125
271
     0
272
     9
273
     9
298
     0
  0
MLINESTYLE
  5
18
102
{ACAD_REACTORS
330
17
102
}
330
17
100
AcDbMlineStyle
  2
STANDARD
 70
     0
  3

 62
   256
 51
90.0
 52
90.0
 71
     2
 49
0.5
 62
   256
  6
BYLAYER
 49
-0.5
 62
   256
  6
BYLAYER
  0
PLOTSETTINGS
  5
D57
102
{ACAD_REACTORS
330
19
102
}
330
19
100
AcDbPlotSettings
  1
Green Laser VLS3.60
  2
Green Laser VLS3.60.pc3
  4
User256
  6

 40
0.0
 41
0.0
 42
0.0
 43
0.0
 44
609.5999755859375
 45
304.7999877929687
 46
0.0
 47
0.0
 48
19.37394523620605
 49
-26.63390626013279
140
43.37394523620605
141
-14.63390626013279
142
1.0
143
1.0
 70
 11936
 72
     0
 73
     0
 74
     4
  7
C:\Users\MHUB-CAD-LOVELACE\appdata\roaming\autodesk\autocad 2017\r21.0\enu\plotters\plot styles\ULS.ctb
 75
     0
147
0.3503793398935053
 76
     0
 77
     2
 78
   300
148
-492.0982089996337
149
676.5012190073727
1001
ACAD_PSEXT
1000
Green Laser VLS3.60.pc3
1000
VLS3.60
1000
\\mhub-laser-1
1000

1070
     0
  0
ACDBPLACEHOLDER
  5
F
102
{ACAD_REACTORS
330
E
102
}
330
E
  0
SCALE
  5
B7
102
{ACAD_REACTORS
330
B6
102
}
330
B6
100
AcDbScale
 70
     0
300
1:1
140
1.0
141
1.0
290
     1
  0
SCALE
  5
124
102
{ACAD_REACTORS
330
B6
102
}
330
B6
100
AcDbScale
 70
     0
300
1:2
140
1.0
141
2.0
290
     0
  0
SCALE
  5
125
102
{ACAD_REACTORS
330
B6
102
}
330
B6
100
AcDbScale
 70
     0
300
1:4
140
1.0
141
4.0
290
     0
  0
SCALE
  5
126
102
{ACAD_REACTORS
330
B6
102
}
330
B6
100
AcDbScale
 70
     0
300
1:5
140
1.0
141
5.0
290
     0
  0
SCALE
  5
127
102
{ACAD_REACTORS
330
B6
102
}
330
B6
100
AcDbScale
 70
     0
300
1:8
140
1.0
141
8.0
290
     0
  0
SCALE
  5
128
102
{ACAD_REACTORS
330
B6
102
}
330
B6
100
AcDbScale
 70
     0
300
1:10
140
1.0
141
10.0
290
     0
  0
SCALE
  5
129
102
{ACAD_REACTORS
330
B6
102
}
330
B6
100
AcDbScale
 70
     0
300
1:16
140
1.0
141
16.0
290
     0
  0
SCALE
  5
12A
102
{ACAD_REACTORS
330
B6
102
}
330
B6
100
AcDbScale
 70
     0
300
1:20
140
1.0
141
20.0
290
     0
  0
SCALE
  5
12B
102
{ACAD_REACTORS
330
B6
102
}
330
B6
100
AcDbScale
 70
     0
300
1:30
140
1.0
141
30.0
290
     0
  0
SCALE
  5
12C
102
{ACAD_REACTORS
330
B6
102
}
330
B6
100
AcDbScale
 70
     0
300
1:40
140
1.0
141
40.0
290
     0
  0
SCALE
  5
12D
102
{ACAD_REACTORS
330
B6
102
}
330
B6
100
AcDbScale
 70
     0
300
1:50
140
1.0
141
50.0
290
     0
  0
SCALE
  5
12E
102
{ACAD_REACTORS
330
B6
102
}
330
B6
100
AcDbScale
 70
     0
300
1:100
140
1.0
141
100.0
290
     0
  0
SCALE
  5
12F
102
{ACAD_REACTORS
330
B6
102
}
330
B6
100
AcDbScale
 70
     0
300
2:1
140
2.0
141
1.0
290
     0
  0
SCALE
  5
130
102
{ACAD_REACTORS
330
B6
102
}
330
B6
100
AcDbScale
 70
     0
300
4:1
140
4.0
141
1.0
290
     0
  0
SCALE
  5
131
102
{ACAD_REACTORS
330
B6
102
}
330
B6
100
AcDbScale
 70
     0
300
8:1
140
8.0
141
1.0
290
     0
  0
SCALE
  5
132
102
{ACAD_REACTORS
330
B6
102
}
330
B6
100
AcDbScale
 70
     0
300
10:1
140
10.0
141
1.0
290
     0
  0
SCALE
  5
133
102
{ACAD_REACTORS
330
B6
102
}
330
B6
100
AcDbScale
 70
     0
300
100:1
140
100.0
141
1.0
290
     0
  0
SCALE
  5
134
102
{ACAD_REACTORS
330
B6
102
}
330
B6
100
AcDbScale
 70
     0
300
1/128" = 1'-0"
140
0.0078125
141
12.0
290
     0
  0
SCALE
  5
135
102
{ACAD_REACTORS
330
B6
102
}
330
B6
100
AcDbScale
 70
     0
300
1/64" = 1'-0"
140
0.015625
141
12.0
290
     0
  0
SCALE
  5
136
102
{ACAD_REACTORS
330
B6
102
}
330
B6
100
AcDbScale
 70
     0
300
1/32" = 1'-0"
140
0.03125
141
12.0
290
     0
  0
SCALE
  5
137
102
{ACAD_REACTORS
330
B6
102
}
330
B6
100
AcDbScale
 70
     0
300
1/16" = 1'-0"
140
0.0625
141
12.0
290
     0
  0
SCALE
  5
138
102
{ACAD_REACTORS
330
B6
102
}
330
B6
100
AcDbScale
 70
     0
300
3/32" = 1'-0"
140
0.09375
141
12.0
290
     0
  0
SCALE
  5
139
102
{ACAD_REACTORS
330
B6
102
}
330
B6
100
AcDbScale
 70
     0
300
1/8" = 1'-0"
140
0.125
141
12.0
290
     0
  0
SCALE
  5
13A
102
{ACAD_REACTORS
330
B6
102
}
330
B6
100
AcDbScale
 70
     0
300
3/16" = 1'-0"
140
0.1875
141
12.0
290
     0
  0
SCALE
  5
13B
102
{ACAD_REACTORS
330
B6
102
}
330
B6
100
AcDbScale
 70
     0
300
1/4" = 1'-0"
140
0.25
141
12.0
290
     0
  0
SCALE
  5
13C
102
{ACAD_REACTORS
330
B6
102
}
330
B6
100
AcDbScale
 70
     0
300
3/8" = 1'-0"
140
0.375
141
12.0
290
     0
  0
SCALE
  5
13D
102
{ACAD_REACTORS
330
B6
102
}
330
B6
100
AcDbScale
 70
     0
300
1/2" = 1'-0"
140
0.5
141
12.0
290
     0
  0
SCALE
  5
13E
102
{ACAD_REACTORS
330
B6
102
}
330
B6
100
AcDbScale
 70
     0
300
3/4" = 1'-0"
140
0.75
141
12.0
290
     0
  0
SCALE
  5
13F
102
{ACAD_REACTORS
330
B6
102
}
330
B6
100
AcDbScale
 70
     0
300
1" = 1'-0"
140
1.0
141
12.0
290
     0
  0
SCALE
  5
140
102
{ACAD_REACTORS
330
B6
102
}
330
B6
100
AcDbScale
 70
     0
300
1-1/2" = 1'-0"
140
1.5
141
12.0
290
     0
  0
SCALE
  5
141
102
{ACAD_REACTORS
330
B6
102
}
330
B6
100
AcDbScale
 70
     0
300
3" = 1'-0"
140
3.0
141
12.0
290
     0
  0
SCALE
  5
142
102
{ACAD_REACTORS
330
B6
102
}
330
B6
100
AcDbScale
 70
     0
300
6" = 1'-0"
140
6.0
141
12.0
290
     0
  0
SCALE
  5
143
102
{ACAD_REACTORS
330
B6
102
}
330
B6
100
AcDbScale
 70
     0
300
1'-0" = 1'-0"
140
12.0
141
12.0
290
     0
  0
ACDBSECTIONVIEWSTYLE
  5
1AA
102
{ACAD_REACTORS
330
1A8
102
}
330
1A8
100
AcDbModelDocViewStyle
 70
     0
  3
Imperial24
290
     0
300
Imperial24
 90
        0
100
AcDbSectionViewStyle
 70
     0
 71
     0
 90
       78
 71
     1
340
11
 62
   256
 40
0.24
340
0
340
0
 62
   256
 40
0.24
300
I, O, Q, S, X, Z
 40
0.48
 90
        3
 40
0.18
 90
        1
 71
     2
340
16
 90
       25
 62
   256
340
16
 90
       50
 62
   256
 40
0.24
 40
0.0
 40
0.24
 71
     3
340
11
 62
   256
 40
0.24
 90
        1
 40
0.75
 90
        1
300
%<\AcVar ViewType \f "%tc1">% %<\AcVar ViewSectionStartId>%-%<\AcVar ViewSectionEndId>%\PSCALE %<\AcVar ViewScale \f "%sn">%
 71
     4
 62
   256
 62
   257
300
ANSI31
 40
1.0
 90
        0
290
     0
290
     0
 90
        6
 40
0.0
 40
1.570796326794896
 40
0.2617993877991494
 40
1.308996938995747
 40
-0.2617993877991494
 40
1.832595714594046
  0
TABLESTYLE
  5
87
102
{ACAD_XDICTIONARY
360
104
102
}
102
{ACAD_REACTORS
330
86
102
}
330
86
100
AcDbTableStyle
280
     0
  3
Standard
 70
     0
 71
     0
 40
0.06
 41
0.06
280
     0
281
     0
  7
Standard
140
0.18
170
     2
 62
     0
 63
     7
283
     0
 90
      512
 91
        0
  1

274
    -2
284
     1
 64
     0
275
    -2
285
     1
 65
     0
276
    -2
286
     1
 66
     0
277
    -2
287
     1
 67
     0
278
    -2
288
     1
 68
     0
279
    -2
289
     1
 69
     0
  7
Standard
140
0.25
170
     5
 62
     0
 63
     7
283
     0
 90
      512
 91
        0
  1

274
    -2
284
     1
 64
     0
275
    -2
285
     1
 65
     0
276
    -2
286
     1
 66
     0
277
    -2
287
     1
 67
     0
278
    -2
288
     1
 68
     0
279
    -2
289
     1
 69
     0
  7
Standard
140
0.18
170
     5
 62
     0
 63
     7
283
     0
 90
      512
 91
        0
  1

274
    -2
284
     1
 64
     0
275
    -2
285
     1
 65
     0
276
    -2
286
     1
 66
     0
277
    -2
287
     1
 67
     0
278
    -2
288
     1
 68
     0
279
    -2
289
     1
 69
     0
  0
VISUALSTYLE
  5
9F
102
{ACAD_REACTORS
330
99
102
}
330
99
100
AcDbVisualStyle
  2
2dWireframe
 70
     4
177
     3
291
     0
 70
    58
 90
        0
176
     1
 90
        2
176
     1
 90
        1
176
     1
 90
        0
176
     1
 40
0.6
176
     1
 40
30.0
176
     1
 62
     7
420
 16777215
176
     1
 90
        1
176
     1
 90
        4
176
     1
 62
     7
176
     1
 62
   257
176
     1
 90
        1
176
     1
 90
        1
176
     1
 40
1.0
176
     1
 90
        0
176
     1
 62
   257
176
     1
 40
1.0
176
     1
 90
        1
176
     1
 90
        6
176
     1
 90
        2
176
     1
 62
     7
176
     1
 90
        5
176
     1
 90
        0
176
     1
 90
        0
176
     1
290
     0
176
     1
 90
        1
176
     1
 40
0.0
176
     1
 90
        0
176
     1
290
     1
176
     1
290
     1
176
     1
290
     0
176
     1
290
     0
176
     1
290
     0
176
     1
290
     0
176
     1
290
     0
176
     1
290
     0
176
     1
290
     0
176
     1
 90
       50
176
     1
 40
0.0
176
     1
 40
1.0
176
     1
 90
        0
176
     1
 62
    18
420
        0
176
     1
 90
       50
176
     1
 90
        3
176
     1
 62
     5
420
      255
176
     1
290
     0
176
     1
 90
       50
176
     1
 90
       50
176
     1
 90
       50
176
     1
290
     0
176
     1
 90
       50
176
     1
 62
   256
176
     0
 40
1.0
176
     0
 90
        2
176
     1
  1
strokes_ogs.tif
176
     1
290
     0
176
     1
 40
1.0
176
     1
 40
1.0
176
     1
  0
VISUALSTYLE
  5
9E
102
{ACAD_REACTORS
330
99
102
}
330
99
100
AcDbVisualStyle
  2
Basic
 70
     7
177
     3
291
     1
 70
    58
 90
        1
176
     1
 90
        0
176
     1
 90
        1
176
     1
 90
        0
176
     1
 40
0.6
176
     1
 40
30.0
176
     1
 62
     7
420
 16777215
176
     1
 90
        0
176
     1
 90
        4
176
     1
 62
     7
176
     1
 62
   257
176
     1
 90
        1
176
     1
 90
        1
176
     1
 40
1.0
176
     1
 90
        8
176
     1
 62
     7
176
     1
 40
1.0
176
     1
 90
        1
176
     1
 90
        6
176
     1
 90
        2
176
     1
 62
     7
176
     1
 90
        5
176
     1
 90
        0
176
     1
 90
        0
176
     1
290
     0
176
     1
 90
        1
176
     1
 40
0.0
176
     1
 90
        0
176
     1
290
     0
176
     1
290
     1
176
     1
290
     1
176
     1
290
     0
176
     1
290
     0
176
     1
290
     0
176
     1
290
     0
176
     1
290
     0
176
     1
290
     0
176
     1
 90
       50
176
     1
 40
0.0
176
     1
 40
1.0
176
     1
 90
        0
176
     1
 62
    18
420
        0
176
     1
 90
       50
176
     1
 90
        3
176
     1
 62
     5
420
      255
176
     1
290
     0
176
     1
 90
       50
176
     1
 90
       50
176
     1
 90
       50
176
     1
290
     0
176
     1
 90
       50
176
     1
 62
   256
176
     0
 40
1.0
176
     0
 90
        2
176
     1
  1
strokes_ogs.tif
176
     1
290
     0
176
     1
 40
1.0
176
     1
 40
1.0
176
     1
  0
VISUALSTYLE
  5
A5
102
{ACAD_REACTORS
330
99
102
}
330
99
100
AcDbVisualStyle
  2
Brighten
 70
    12
177
     3
291
     1
 70
    58
 90
        2
176
     1
 90
        2
176
     1
 90
        1
176
     1
 90
        0
176
     1
 40
0.6
176
     1
 40
30.0
176
     1
 62
     7
420
 16777215
176
     1
 90
        1
176
     1
 90
        4
176
     1
 62
     7
176
     1
 62
   257
176
     1
 90
        1
176
     1
 90
        1
176
     1
 40
1.0
176
     1
 90
        8
176
     1
 62
     7
176
     1
 40
1.0
176
     1
 90
        1
176
     1
 90
        6
176
     1
 90
        2
176
     1
 62
     7
176
     1
 90
        5
176
     1
 90
        0
176
     1
 90
        0
176
     1
290
     0
176
     1
 90
        1
176
     1
 40
50.0
176
     1
 90
        0
176
     1
290
     0
176
     1
290
     1
176
     1
290
     1
176
     1
290
     0
176
     1
290
     0
176
     1
290
     0
176
     1
290
     0
176
     1
290
     0
176
     1
290
     0
176
     1
 90
       50
176
     1
 40
0.0
176
     1
 40
1.0
176
     1
 90
        0
176
     1
 62
    18
420
        0
176
     1
 90
       50
176
     1
 90
        3
176
     1
 62
     5
420
      255
176
     1
290
     0
176
     1
 90
       50
176
     1
 90
       50
176
     1
 90
       50
176
     1
290
     0
176
     1
 90
       50
176
     1
 62
   256
176
     0
 40
1.0
176
     0
 90
        2
176
     1
  1
strokes_ogs.tif
176
     1
290
     0
176
     1
 40
1.0
176
     1
 40
1.0
176
     1
  0
VISUALSTYLE
  5
A9
102
{ACAD_REACTORS
330
99
102
}
330
99
100
AcDbVisualStyle
  2
ColorChange
 70
    16
177
     3
291
     1
 70
    58
 90
        2
176
     1
 90
        2
176
     1
 90
        3
176
     1
 90
        0
176
     1
 40
0.6
176
     1
 40
30.0
176
     1
 62
     8
420
  8421504
176
     1
 90
        1
176
     1
 90
        4
176
     1
 62
     7
176
     1
 62
   257
176
     1
 90
        1
176
     1
 90
        1
176
     1
 40
1.0
176
     1
 90
        8
176
     1
 62
     8
420
  8421504
176
     1
 40
1.0
176
     1
 90
        1
176
     1
 90
        6
176
     1
 90
        2
176
     1
 62
     7
176
     1
 90
        5
176
     1
 90
        0
176
     1
 90
        0
176
     1
290
     0
176
     1
 90
        1
176
     1
 40
0.0
176
     1
 90
        0
176
     1
290
     0
176
     1
290
     1
176
     1
290
     1
176
     1
290
     0
176
     1
290
     0
176
     1
290
     0
176
     1
290
     0
176
     1
290
     0
176
     1
290
     0
176
     1
 90
       50
176
     1
 40
0.0
176
     1
 40
1.0
176
     1
 90
        0
176
     1
 62
    18
420
        0
176
     1
 90
       50
176
     1
 90
        3
176
     1
 62
     5
420
      255
176
     1
290
     0
176
     1
 90
       50
176
     1
 90
       50
176
     1
 90
       50
176
     1
290
     0
176
     1
 90
       50
176
     1
 62
   256
176
     0
 40
1.0
176
     0
 90
        2
176
     1
  1
strokes_ogs.tif
176
     1
290
     0
176
     1
 40
1.0
176
     1
 40
1.0
176
     1
  0
VISUALSTYLE
  5
A2
102
{ACAD_REACTORS
330
99
102
}
330
99
100
AcDbVisualStyle
  2
Conceptual
 70
     9
177
     3
291
     0
 70
    58
 90
        3
176
     1
 90
        2
176
     1
 90
        1
176
     1
 90
        0
176
     1
 40
0.6
176
     1
 40
30.0
176
     1
 62
     7
420
 16777215
176
     1
 90
        2
176
     1
 90
        2
176
     1
 62
     7
176
     1
 62
   257
176
     1
 90
        1
176
     1
 90
        1
176
     1
 40
40.0
176
     1
 90
        8
176
     1
 62
     7
176
     1
 40
1.0
176
     1
 90
        1
176
     1
 90
        6
176
     1
 90
        2
176
     1
 62
     7
176
     1
 90
        3
176
     1
 90
        0
176
     1
 90
        0
176
     1
290
     0
176
     1
 90
        1
176
     1
 40
0.0
176
     1
 90
        0
176
     1
290
     0
176
     1
290
     1
176
     1
290
     1
176
     1
290
     0
176
     1
290
     0
176
     1
290
     0
176
     1
290
     0
176
     1
290
     0
176
     1
290
     0
176
     1
 90
       50
176
     1
 40
0.0
176
     1
 40
1.0
176
     1
 90
        0
176
     1
 62
    18
420
        0
176
     1
 90
       50
176
     1
 90
        3
176
     1
 62
     5
420
      255
176
     1
290
     0
176
     1
 90
       50
176
     1
 90
       50
176
     1
 90
       50
176
     1
290
     0
176
     1
 90
       50
176
     1
 62
   256
176
     0
 40
1.0
176
     0
 90
        2
176
     1
  1
strokes_ogs.tif
176
     1
290
     0
176
     1
 40
1.0
176
     1
 40
1.0
176
     1
  0
VISUALSTYLE
  5
A4
102
{ACAD_REACTORS
330
99
102
}
330
99
100
AcDbVisualStyle
  2
Dim
 70
    11
177
     3
291
     1
 70
    58
 90
        2
176
     1
 90
        2
176
     1
 90
        1
176
     1
 90
        0
176
     1
 40
0.6
176
     1
 40
30.0
176
     1
 62
     7
420
 16777215
176
     1
 90
        1
176
     1
 90
        4
176
     1
 62
     7
176
     1
 62
   257
176
     1
 90
        1
176
     1
 90
        1
176
     1
 40
1.0
176
     1
 90
        8
176
     1
 62
     7
176
     1
 40
1.0
176
     1
 90
        1
176
     1
 90
        6
176
     1
 90
        2
176
     1
 62
     7
176
     1
 90
        5
176
     1
 90
        0
176
     1
 90
        0
176
     1
290
     0
176
     1
 90
        1
176
     1
 40
-50.0
176
     1
 90
        0
176
     1
290
     0
176
     1
290
     1
176
     1
290
     1
176
     1
290
     0
176
     1
290
     0
176
     1
290
     0
176
     1
290
     0
176
     1
290
     0
176
     1
290
     0
176
     1
 90
       50
176
     1
 40
0.0
176
     1
 40
1.0
176
     1
 90
        0
176
     1
 62
    18
420
        0
176
     1
 90
       50
176
     1
 90
        3
176
     1
 62
     5
420
      255
176
     1
290
     0
176
     1
 90
       50
176
     1
 90
       50
176
     1
 90
       50
176
     1
290
     0
176
     1
 90
       50
176
     1
 62
   256
176
     0
 40
1.0
176
     0
 90
        2
176
     1
  1
strokes_ogs.tif
176
     1
290
     0
176
     1
 40
1.0
176
     1
 40
1.0
176
     1
  0
VISUALSTYLE
  5
175
102
{ACAD_REACTORS
330
99
102
}
330
99
100
AcDbVisualStyle
  2
EdgeColorOff
 70
    22
177
     3
291
     1
 70
    58
 90
        2
176
     0
 90
        2
176
     0
 90
        0
176
     0
 90
        0
176
     0
 40
0.6
176
     0
 40
30.0
176
     0
 62
     7
420
 16777215
176
     0
 90
        1
176
     0
 90
        4
176
     0
 62
     7
176
     0
 62
   257
176
     0
 90
        1
176
     0
 90
        1
176
     0
 40
1.0
176
     0
 90
        8
176
     2
 62
     7
176
     0
 40
1.0
176
     0
 90
        1
176
     0
 90
        6
176
     0
 90
        2
176
     0
 62
     7
176
     0
 90
        5
176
     0
 90
        0
176
     0
 90
        0
176
     0
290
     0
176
     0
 90
        1
176
     0
 40
0.0
176
     0
 90
        0
176
     0
290
     0
176
     1
290
     1
176
     1
290
     1
176
     1
290
     0
176
     1
290
     0
176
     1
290
     0
176
     1
290
     0
176
     1
290
     0
176
     1
290
     0
176
     1
 90
       50
176
     1
 40
0.0
176
     1
 40
1.0
176
     1
 90
        0
176
     1
 62
    18
420
        0
176
     1
 90
       50
176
     1
 90
        3
176
     1
 62
     5
420
      255
176
     1
290
     0
176
     1
 90
       50
176
     1
 90
       50
176
     1
 90
       50
176
     1
290
     0
176
     1
 90
       50
176
     1
 62
   256
176
     0
 40
1.0
176
     0
 90
        2
176
     1
  1
strokes_ogs.tif
176
     1
290
     0
176
     1
 40
1.0
176
     1
 40
1.0
176
     1
  0
VISUALSTYLE
  5
A8
102
{ACAD_REACTORS
330
99
102
}
330
99
100
AcDbVisualStyle
  2
Facepattern
 70
    15
177
     3
291
     1
 70
    58
 90
        2
176
     1
 90
        2
176
     1
 90
        1
176
     1
 90
        0
176
     1
 40
0.6
176
     1
 40
30.0
176
     1
 62
     7
420
 16777215
176
     1
 90
        1
176
     1
 90
        4
176
     1
 62
     7
176
     1
 62
   257
176
     1
 90
        1
176
     1
 90
        1
176
     1
 40
1.0
176
     1
 90
        8
176
     1
 62
     7
176
     1
 40
1.0
176
     1
 90
        1
176
     1
 90
        6
176
     1
 90
        2
176
     1
 62
     7
176
     1
 90
        5
176
     1
 90
        0
176
     1
 90
        0
176
     1
290
     0
176
     1
 90
        1
176
     1
 40
0.0
176
     1
 90
        0
176
     1
290
     0
176
     1
290
     1
176
     1
290
     1
176
     1
290
     0
176
     1
290
     0
176
     1
290
     0
176
     1
290
     0
176
     1
290
     0
176
     1
290
     0
176
     1
 90
       50
176
     1
 40
0.0
176
     1
 40
1.0
176
     1
 90
        0
176
     1
 62
    18
420
        0
176
     1
 90
       50
176
     1
 90
        3
176
     1
 62
     5
420
      255
176
     1
290
     0
176
     1
 90
       50
176
     1
 90
       50
176
     1
 90
       50
176
     1
290
     0
176
     1
 90
       50
176
     1
 62
   256
176
     0
 40
1.0
176
     0
 90
        2
176
     1
  1
strokes_ogs.tif
176
     1
290
     0
176
     1
 40
1.0
176
     1
 40
1.0
176
     1
  0
VISUALSTYLE
  5
9A
102
{ACAD_REACTORS
330
99
102
}
330
99
100
AcDbVisualStyle
  2
Flat
 70
     0
177
     3
291
     1
 70
    58
 90
        2
176
     1
 90
        1
176
     1
 90
        1
176
     1
 90
        2
176
     1
 40
0.6
176
     1
 40
30.0
176
     1
 62
     7
420
 16777215
176
     1
 90
        0
176
     1
 90
        0
176
     1
 62
     7
176
     1
 62
   257
176
     1
 90
        1
176
     1
 90
        1
176
     1
 40
1.0
176
     1
 90
        8
176
     1
 62
     7
176
     1
 40
1.0
176
     1
 90
        1
176
     1
 90
        6
176
     1
 90
        2
176
     1
 62
     7
176
     1
 90
        5
176
     1
 90
        0
176
     1
 90
        0
176
     1
290
     0
176
     1
 90
       13
176
     1
 40
0.0
176
     1
 90
        0
176
     1
290
     0
176
     1
290
     1
176
     1
290
     1
176
     1
290
     0
176
     1
290
     0
176
     1
290
     0
176
     1
290
     0
176
     1
290
     0
176
     1
290
     0
176
     1
 90
       50
176
     1
 40
0.0
176
     1
 40
1.0
176
     1
 90
        0
176
     1
 62
    18
420
        0
176
     1
 90
       50
176
     1
 90
        3
176
     1
 62
     5
420
      255
176
     1
290
     0
176
     1
 90
       50
176
     1
 90
       50
176
     1
 90
       50
176
     1
290
     0
176
     1
 90
       50
176
     1
 62
   256
176
     0
 40
1.0
176
     0
 90
        2
176
     1
  1
strokes_ogs.tif
176
     1
290
     0
176
     1
 40
1.0
176
     1
 40
1.0
176
     1
  0
VISUALSTYLE
  5
9B
102
{ACAD_REACTORS
330
99
102
}
330
99
100
AcDbVisualStyle
  2
FlatWithEdges
 70
     1
177
     3
291
     1
 70
    58
 90
        2
176
     1
 90
        1
176
     1
 90
        1
176
     1
 90
        2
176
     1
 40
0.6
176
     1
 40
30.0
176
     1
 62
     7
420
 16777215
176
     1
 90
        1
176
     1
 90
        0
176
     1
 62
     7
176
     1
 62
   257
176
     1
 90
        1
176
     1
 90
        1
176
     1
 40
1.0
176
     1
 90
        0
176
     1
 62
   257
176
     1
 40
1.0
176
     1
 90
        1
176
     1
 90
        6
176
     1
 90
        2
176
     1
 62
     7
176
     1
 90
        5
176
     1
 90
        0
176
     1
 90
        0
176
     1
290
     0
176
     1
 90
       13
176
     1
 40
0.0
176
     1
 90
        0
176
     1
290
     0
176
     1
290
     1
176
     1
290
     1
176
     1
290
     0
176
     1
290
     0
176
     1
290
     0
176
     1
290
     0
176
     1
290
     0
176
     1
290
     0
176
     1
 90
       50
176
     1
 40
0.0
176
     1
 40
1.0
176
     1
 90
        0
176
     1
 62
    18
420
        0
176
     1
 90
       50
176
     1
 90
        3
176
     1
 62
     5
420
      255
176
     1
290
     0
176
     1
 90
       50
176
     1
 90
       50
176
     1
 90
       50
176
     1
290
     0
176
     1
 90
       50
176
     1
 62
   256
176
     0
 40
1.0
176
     0
 90
        2
176
     1
  1
strokes_ogs.tif
176
     1
290
     0
176
     1
 40
1.0
176
     1
 40
1.0
176
     1
  0
VISUALSTYLE
  5
9C
102
{ACAD_REACTORS
330
99
102
}
330
99
100
AcDbVisualStyle
  2
Gouraud
 70
     2
177
     3
291
     1
 70
    58
 90
        2
176
     1
 90
        2
176
     1
 90
        1
176
     1
 90
        2
176
     1
 40
0.6
176
     1
 40
30.0
176
     1
 62
     7
420
 16777215
176
     1
 90
        0
176
     1
 90
        0
176
     1
 62
     7
176
     1
 62
   257
176
     1
 90
        1
176
     1
 90
        1
176
     1
 40
1.0
176
     1
 90
        0
176
     1
 62
     7
176
     1
 40
1.0
176
     1
 90
        1
176
     1
 90
        6
176
     1
 90
        2
176
     1
 62
     7
176
     1
 90
        5
176
     1
 90
        0
176
     1
 90
        0
176
     1
290
     0
176
     1
 90
       13
176
     1
 40
0.0
176
     1
 90
        0
176
     1
290
     0
176
     1
290
     1
176
     1
290
     1
176
     1
290
     0
176
     1
290
     0
176
     1
290
     0
176
     1
290
     0
176
     1
290
     0
176
     1
290
     0
176
     1
 90
       50
176
     1
 40
0.0
176
     1
 40
1.0
176
     1
 90
        0
176
     1
 62
    18
420
        0
176
     1
 90
       50
176
     1
 90
        3
176
     1
 62
     5
420
      255
176
     1
290
     0
176
     1
 90
       50
176
     1
 90
       50
176
     1
 90
       50
176
     1
290
     0
176
     1
 90
       50
176
     1
 62
   256
176
     0
 40
1.0
176
     0
 90
        2
176
     1
  1
strokes_ogs.tif
176
     1
290
     0
176
     1
 40
1.0
176
     1
 40
1.0
176
     1
  0
VISUALSTYLE
  5
9D
102
{ACAD_REACTORS
330
99
102
}
330
99
100
AcDbVisualStyle
  2
GouraudWithEdges
 70
     3
177
     3
291
     1
 70
    58
 90
        2
176
     1
 90
        2
176
     1
 90
        1
176
     1
 90
        2
176
     1
 40
0.6
176
     1
 40
30.0
176
     1
 62
     7
420
 16777215
176
     1
 90
        1
176
     1
 90
        0
176
     1
 62
     7
176
     1
 62
   257
176
     1
 90
        1
176
     1
 90
        1
176
     1
 40
1.0
176
     1
 90
        0
176
     1
 62
   257
176
     1
 40
1.0
176
     1
 90
        1
176
     1
 90
        6
176
     1
 90
        2
176
     1
 62
     7
176
     1
 90
        5
176
     1
 90
        0
176
     1
 90
        0
176
     1
290
     0
176
     1
 90
       13
176
     1
 40
0.0
176
     1
 90
        0
176
     1
290
     0
176
     1
290
     1
176
     1
290
     1
176
     1
290
     0
176
     1
290
     0
176
     1
290
     0
176
     1
290
     0
176
     1
290
     0
176
     1
290
     0
176
     1
 90
       50
176
     1
 40
0.0
176
     1
 40
1.0
176
     1
 90
        0
176
     1
 62
    18
420
        0
176
     1
 90
       50
176
     1
 90
        3
176
     1
 62
     5
420
      255
176
     1
290
     0
176
     1
 90
       50
176
     1
 90
       50
176
     1
 90
       50
176
     1
290
     0
176
     1
 90
       50
176
     1
 62
   256
176
     0
 40
1.0
176
     0
 90
        2
176
     1
  1
strokes_ogs.tif
176
     1
290
     0
176
     1
 40
1.0
176
     1
 40
1.0
176
     1
  0
VISUALSTYLE
  5
A1
102
{ACAD_REACTORS
330
99
102
}
330
99
100
AcDbVisualStyle
  2
Hidden
 70
     6
177
     3
291
     0
 70
    58
 90
        1
176
     1
 90
        2
176
     1
 90
        2
176
     1
 90
        0
176
     1
 40
0.6
176
     1
 40
30.0
176
     1
 62
     7
420
 16777215
176
     1
 90
        2
176
     1
 90
        2
176
     1
 62
     7
176
     1
 62
   257
176
     1
 90
        2
176
     1
 90
        1
176
     1
 40
40.0
176
     1
 90
        0
176
     1
 62
   257
176
     1
 40
1.0
176
     1
 90
        1
176
     1
 90
        6
176
     1
 90
        2
176
     1
 62
     7
176
     1
 90
        3
176
     1
 90
        0
176
     1
 90
        0
176
     1
290
     0
176
     1
 90
        1
176
     1
 40
0.0
176
     1
 90
        0
176
     1
290
     0
176
     1
290
     1
176
     1
290
     1
176
     1
290
     0
176
     1
290
     0
176
     1
290
     0
176
     1
290
     0
176
     1
290
     0
176
     1
290
     0
176
     1
 90
       50
176
     1
 40
0.0
176
     1
 40
1.0
176
     1
 90
        0
176
     1
 62
    18
420
        0
176
     1
 90
       50
176
     1
 90
        3
176
     1
 62
     5
420
      255
176
     1
290
     0
176
     1
 90
       50
176
     1
 90
       50
176
     1
 90
       50
176
     1
290
     0
176
     1
 90
       50
176
     1
 62
   256
176
     0
 40
1.0
176
     0
 90
        2
176
     1
  1
strokes_ogs.tif
176
     1
290
     0
176
     1
 40
1.0
176
     1
 40
1.0
176
     1
  0
VISUALSTYLE
  5
173
102
{ACAD_REACTORS
330
99
102
}
330
99
100
AcDbVisualStyle
  2
JitterOff
 70
    20
177
     3
291
     1
 70
    58
 90
        2
176
     0
 90
        2
176
     0
 90
        0
176
     0
 90
        0
176
     0
 40
0.6
176
     0
 40
30.0
176
     0
 62
     7
420
 16777215
176
     0
 90
        1
176
     0
 90
        4
176
     0
 62
     7
176
     0
 62
   257
176
     0
 90
        1
176
     0
 90
        1
176
     0
 40
1.0
176
     0
 90
       10
176
     2
 62
     7
176
     0
 40
1.0
176
     0
 90
        1
176
     0
 90
        6
176
     0
 90
        2
176
     0
 62
     7
176
     0
 90
        5
176
     0
 90
        0
176
     0
 90
        0
176
     0
290
     0
176
     0
 90
        1
176
     0
 40
0.0
176
     0
 90
        0
176
     0
290
     0
176
     1
290
     1
176
     1
290
     1
176
     1
290
     0
176
     1
290
     0
176
     1
290
     0
176
     1
290
     0
176
     1
290
     0
176
     1
290
     0
176
     1
 90
       50
176
     1
 40
0.0
176
     1
 40
1.0
176
     1
 90
        0
176
     1
 62
    18
420
        0
176
     1
 90
       50
176
     1
 90
        3
176
     1
 62
     5
420
      255
176
     1
290
     0
176
     1
 90
       50
176
     1
 90
       50
176
     1
 90
       50
176
     1
290
     0
176
     1
 90
       50
176
     1
 62
   256
176
     0
 40
1.0
176
     0
 90
        2
176
     1
  1
strokes_ogs.tif
176
     1
290
     0
176
     1
 40
1.0
176
     1
 40
1.0
176
     1
  0
VISUALSTYLE
  5
A7
102
{ACAD_REACTORS
330
99
102
}
330
99
100
AcDbVisualStyle
  2
Linepattern
 70
    14
177
     3
291
     1
 70
    58
 90
        2
176
     1
 90
        2
176
     1
 90
        1
176
     1
 90
        0
176
     1
 40
0.6
176
     1
 40
30.0
176
     1
 62
     7
420
 16777215
176
     1
 90
        1
176
     1
 90
        4
176
     1
 62
     7
176
     1
 62
   257
176
     1
 90
        7
176
     1
 90
        7
176
     1
 40
1.0
176
     1
 90
        8
176
     1
 62
     7
176
     1
 40
1.0
176
     1
 90
        1
176
     1
 90
        6
176
     1
 90
        2
176
     1
 62
     7
176
     1
 90
        5
176
     1
 90
        0
176
     1
 90
        0
176
     1
290
     0
176
     1
 90
        1
176
     1
 40
0.0
176
     1
 90
        0
176
     1
290
     0
176
     1
290
     1
176
     1
290
     1
176
     1
290
     0
176
     1
290
     0
176
     1
290
     0
176
     1
290
     0
176
     1
290
     0
176
     1
290
     0
176
     1
 90
       50
176
     1
 40
0.0
176
     1
 40
1.0
176
     1
 90
        0
176
     1
 62
    18
420
        0
176
     1
 90
       50
176
     1
 90
        3
176
     1
 62
     5
420
      255
176
     1
290
     0
176
     1
 90
       50
176
     1
 90
       50
176
     1
 90
       50
176
     1
290
     0
176
     1
 90
       50
176
     1
 62
   256
176
     0
 40
1.0
176
     0
 90
        2
176
     1
  1
strokes_ogs.tif
176
     1
290
     0
176
     1
 40
1.0
176
     1
 40
1.0
176
     1
  0
VISUALSTYLE
  5
174
102
{ACAD_REACTORS
330
99
102
}
330
99
100
AcDbVisualStyle
  2
OverhangOff
 70
    21
177
     3
291
     1
 70
    58
 90
        2
176
     0
 90
        2
176
     0
 90
        0
176
     0
 90
        0
176
     0
 40
0.6
176
     0
 40
30.0
176
     0
 62
     7
420
 16777215
176
     0
 90
        1
176
     0
 90
        4
176
     0
 62
     7
176
     0
 62
   257
176
     0
 90
        1
176
     0
 90
        1
176
     0
 40
1.0
176
     0
 90
        9
176
     2
 62
     7
176
     0
 40
1.0
176
     0
 90
        1
176
     0
 90
        6
176
     0
 90
        2
176
     0
 62
     7
176
     0
 90
        5
176
     0
 90
        0
176
     0
 90
        0
176
     0
290
     0
176
     0
 90
        1
176
     0
 40
0.0
176
     0
 90
        0
176
     0
290
     0
176
     1
290
     1
176
     1
290
     1
176
     1
290
     0
176
     1
290
     0
176
     1
290
     0
176
     1
290
     0
176
     1
290
     0
176
     1
290
     0
176
     1
 90
       50
176
     1
 40
0.0
176
     1
 40
1.0
176
     1
 90
        0
176
     1
 62
    18
420
        0
176
     1
 90
       50
176
     1
 90
        3
176
     1
 62
     5
420
      255
176
     1
290
     0
176
     1
 90
       50
176
     1
 90
       50
176
     1
 90
       50
176
     1
290
     0
176
     1
 90
       50
176
     1
 62
   256
176
     0
 40
1.0
176
     0
 90
        2
176
     1
  1
strokes_ogs.tif
176
     1
290
     0
176
     1
 40
1.0
176
     1
 40
1.0
176
     1
  0
VISUALSTYLE
  5
A3
102
{ACAD_REACTORS
330
99
102
}
330
99
100
AcDbVisualStyle
  2
Realistic
 70
     8
177
     3
291
     0
 70
    58
 90
        2
176
     1
 90
        3
176
     1
 90
        0
176
     1
 90
        2
176
     1
 40
0.6
176
     1
 40
30.0
176
     1
 62
     7
420
 16777215
176
     1
 90
        0
176
     1
 90
        0
176
     1
 62
     7
176
     1
 62
   257
176
     1
 90
        1
176
     1
 90
        1
176
     1
 40
1.0
176
     1
 90
        8
176
     1
 62
   257
176
     1
 40
1.0
176
     1
 90
        1
176
     1
 90
        6
176
     1
 90
        2
176
     1
 62
     7
176
     1
 90
        3
176
     1
 90
        0
176
     1
 90
        0
176
     1
290
     0
176
     1
 90
       13
176
     1
 40
0.0
176
     1
 90
        0
176
     1
290
     0
176
     1
290
     1
176
     1
290
     1
176
     1
290
     0
176
     1
290
     0
176
     1
290
     0
176
     1
290
     0
176
     1
290
     0
176
     1
290
     0
176
     1
 90
       50
176
     1
 40
0.0
176
     1
 40
1.0
176
     1
 90
        0
176
     1
 62
    18
420
        0
176
     1
 90
       50
176
     1
 90
        3
176
     1
 62
     5
420
      255
176
     1
290
     0
176
     1
 90
       50
176
     1
 90
       50
176
     1
 90
       50
176
     1
290
     0
176
     1
 90
       50
176
     1
 62
   256
176
     0
 40
1.0
176
     0
 90
        2
176
     1
  1
strokes_ogs.tif
176
     1
290
     0
176
     1
 40
1.0
176
     1
 40
1.0
176
     1
  0
VISUALSTYLE
  5
182
102
{ACAD_REACTORS
330
99
102
}
330
99
100
AcDbVisualStyle
  2
Shaded
 70
    27
177
     3
291
     0
 70
    58
 90
        2
176
     1
 90
        2
176
     1
 90
        1
176
     1
 90
        2
176
     1
 40
0.6
176
     1
 40
30.0
176
     1
 62
     7
420
 16777215
176
     1
 90
        0
176
     1
 90
        4
176
     1
 62
     7
176
     1
 62
   257
176
     1
 90
        1
176
     1
 90
        1
176
     1
 40
1.0
176
     1
 90
        8
176
     1
 62
   257
176
     1
 40
1.0
176
     1
 90
        1
176
     1
 90
        6
176
     1
 90
        2
176
     1
 62
     8
420
  7895160
176
     1
 90
        3
176
     1
 90
        0
176
     1
 90
        0
176
     1
290
     0
176
     1
 90
        5
176
     1
 40
0.0
176
     1
 90
        0
176
     1
290
     0
176
     1
290
     1
176
     1
290
     1
176
     1
290
     0
176
     1
290
     0
176
     1
290
     0
176
     1
290
     0
176
     1
290
     0
176
     1
290
     0
176
     1
 90
       50
176
     1
 40
0.0
176
     1
 40
1.0
176
     1
 90
        0
176
     1
 62
    18
420
        0
176
     1
 90
       50
176
     1
 90
        3
176
     1
 62
     5
420
      255
176
     1
290
     0
176
     1
 90
       50
176
     1
 90
       50
176
     1
 90
       50
176
     1
290
     0
176
     1
 90
       50
176
     1
 62
   256
176
     0
 40
1.0
176
     0
 90
        2
176
     1
  1
strokes_ogs.tif
176
     1
290
     0
176
     1
 40
1.0
176
     1
 40
1.0
176
     1
  0
VISUALSTYLE
  5
181
102
{ACAD_REACTORS
330
99
102
}
330
99
100
AcDbVisualStyle
  2
Shaded with edges
 70
    26
177
     3
291
     0
 70
    58
 90
        2
176
     1
 90
        2
176
     1
 90
        1
176
     1
 90
        2
176
     1
 40
0.6
176
     1
 40
30.0
176
     1
 62
     7
420
 16777215
176
     1
 90
        1
176
     1
 90
        2
176
     1
 62
     7
176
     1
 62
   257
176
     1
 90
        2
176
     1
 90
        1
176
     1
 40
1.0
176
     1
 90
        8
176
     1
 62
   257
176
     1
 40
1.0
176
     1
 90
        1
176
     1
 90
        6
176
     1
 90
        2
176
     1
 62
     7
176
     1
 90
        3
176
     1
 90
        0
176
     1
 90
        0
176
     1
290
     0
176
     1
 90
        5
176
     1
 40
0.0
176
     1
 90
        0
176
     1
290
     0
176
     1
290
     1
176
     1
290
     1
176
     1
290
     0
176
     1
290
     0
176
     1
290
     0
176
     1
290
     0
176
     1
290
     0
176
     1
290
     0
176
     1
 90
       50
176
     1
 40
0.0
176
     1
 40
1.0
176
     1
 90
        0
176
     1
 62
    18
420
        0
176
     1
 90
       50
176
     1
 90
        3
176
     1
 62
     5
420
      255
176
     1
290
     0
176
     1
 90
       50
176
     1
 90
       50
176
     1
 90
       50
176
     1
290
     0
176
     1
 90
       50
176
     1
 62
   256
176
     0
 40
1.0
176
     0
 90
        2
176
     1
  1
strokes_ogs.tif
176
     1
290
     0
176
     1
 40
1.0
176
     1
 40
1.0
176
     1
  0
VISUALSTYLE
  5
17E
102
{ACAD_REACTORS
330
99
102
}
330
99
100
AcDbVisualStyle
  2
Shades of Gray
 70
    23
177
     3
291
     0
 70
    58
 90
        2
176
     1
 90
        2
176
     1
 90
        3
176
     1
 90
        0
176
     1
 40
0.6
176
     1
 40
30.0
176
     1
 62
     7
420
 16777215
176
     1
 90
        2
176
     1
 90
        2
176
     1
 62
     7
176
     1
 62
     7
176
     1
 90
        1
176
     1
 90
        1
176
     1
 40
40.0
176
     1
 90
        8
176
     1
 62
     7
176
     1
 40
1.0
176
     1
 90
        1
176
     1
 90
        6
176
     1
 90
        2
176
     1
 62
     7
176
     1
 90
        3
176
     1
 90
        0
176
     1
 90
        0
176
     1
290
     0
176
     1
 90
        1
176
     1
 40
0.0
176
     1
 90
        0
176
     1
290
     0
176
     1
290
     1
176
     1
290
     1
176
     1
290
     0
176
     1
290
     0
176
     1
290
     0
176
     1
290
     0
176
     1
290
     0
176
     1
290
     0
176
     1
 90
       50
176
     1
 40
0.0
176
     1
 40
1.0
176
     1
 90
        0
176
     1
 62
    18
420
        0
176
     1
 90
       50
176
     1
 90
        3
176
     1
 62
     5
420
      255
176
     1
290
     0
176
     1
 90
       50
176
     1
 90
       50
176
     1
 90
       50
176
     1
290
     0
176
     1
 90
       50
176
     1
 62
   256
176
     0
 40
1.0
176
     0
 90
        2
176
     1
  1
strokes_ogs.tif
176
     1
290
     0
176
     1
 40
1.0
176
     1
 40
1.0
176
     1
  0
VISUALSTYLE
  5
17F
102
{ACAD_REACTORS
330
99
102
}
330
99
100
AcDbVisualStyle
  2
Sketchy
 70
    24
177
     3
291
     0
 70
    58
 90
        1
176
     1
 90
        2
176
     1
 90
        2
176
     1
 90
        0
176
     1
 40
0.6
176
     1
 40
30.0
176
     1
 62
     7
420
 16777215
176
     1
 90
        2
176
     1
 90
        2
176
     1
 62
     7
176
     1
 62
     7
176
     1
 90
        1
176
     1
 90
        1
176
     1
 40
40.0
176
     1
 90
       11
176
     1
 62
     7
176
     1
 40
1.0
176
     1
 90
        1
176
     1
 90
        6
176
     1
 90
        2
176
     1
 62
     7
176
     1
 90
        6
176
     1
 90
        0
176
     1
 90
        0
176
     1
290
     0
176
     1
 90
        1
176
     1
 40
0.0
176
     1
 90
        0
176
     1
290
     0
176
     1
290
     1
176
     1
290
     1
176
     1
290
     0
176
     1
290
     0
176
     1
290
     0
176
     1
290
     0
176
     1
290
     0
176
     1
290
     0
176
     1
 90
       50
176
     1
 40
0.0
176
     1
 40
1.0
176
     1
 90
        0
176
     1
 62
    18
420
        0
176
     1
 90
       50
176
     1
 90
        3
176
     1
 62
     5
420
      255
176
     1
290
     0
176
     1
 90
       50
176
     1
 90
       50
176
     1
 90
       50
176
     1
290
     0
176
     1
 90
       50
176
     1
 62
   256
176
     0
 40
1.0
176
     0
 90
        2
176
     1
  1
strokes_ogs.tif
176
     1
290
     0
176
     1
 40
1.0
176
     1
 40
1.0
176
     1
  0
VISUALSTYLE
  5
A6
102
{ACAD_REACTORS
330
99
102
}
330
99
100
AcDbVisualStyle
  2
Thicken
 70
    13
177
     3
291
     1
 70
    58
 90
        2
176
     1
 90
        2
176
     1
 90
        1
176
     1
 90
        0
176
     1
 40
0.6
176
     1
 40
30.0
176
     1
 62
     7
420
 16777215
176
     1
 90
        1
176
     1
 90
        4
176
     1
 62
     7
176
     1
 62
   257
176
     1
 90
        1
176
     1
 90
        1
176
     1
 40
1.0
176
     1
 90
       12
176
     1
 62
     7
176
     1
 40
1.0
176
     1
 90
        1
176
     1
 90
        6
176
     1
 90
        2
176
     1
 62
     7
176
     1
 90
        5
176
     1
 90
        0
176
     1
 90
        0
176
     1
290
     0
176
     1
 90
        1
176
     1
 40
0.0
176
     1
 90
        0
176
     1
290
     0
176
     1
290
     1
176
     1
290
     1
176
     1
290
     0
176
     1
290
     0
176
     1
290
     0
176
     1
290
     0
176
     1
290
     0
176
     1
290
     0
176
     1
 90
       50
176
     1
 40
0.0
176
     1
 40
1.0
176
     1
 90
        0
176
     1
 62
    18
420
        0
176
     1
 90
       50
176
     1
 90
        3
176
     1
 62
     5
420
      255
176
     1
290
     0
176
     1
 90
       50
176
     1
 90
       50
176
     1
 90
       50
176
     1
290
     0
176
     1
 90
       50
176
     1
 62
   256
176
     0
 40
1.0
176
     0
 90
        2
176
     1
  1
strokes_ogs.tif
176
     1
290
     0
176
     1
 40
1.0
176
     1
 40
1.0
176
     1
  0
VISUALSTYLE
  5
A0
102
{ACAD_REACTORS
330
99
102
}
330
99
100
AcDbVisualStyle
  2
Wireframe
 70
     5
177
     3
291
     0
 70
    58
 90
        0
176
     1
 90
        2
176
     1
 90
        0
176
     1
 90
        0
176
     1
 40
0.6
176
     1
 40
30.0
176
     1
 62
     7
420
 16777215
176
     1
 90
        1
176
     1
 90
        4
176
     1
 62
     7
176
     1
 62
   257
176
     1
 90
        1
176
     1
 90
        1
176
     1
 40
1.0
176
     1
 90
        0
176
     1
 62
   257
176
     1
 40
1.0
176
     1
 90
        1
176
     1
 90
        6
176
     1
 90
        2
176
     1
 62
     7
176
     1
 90
        3
176
     1
 90
        0
176
     1
 90
        0
176
     1
290
     0
176
     1
 90
        1
176
     1
 40
0.0
176
     1
 90
        0
176
     1
290
     0
176
     1
290
     1
176
     1
290
     1
176
     1
290
     0
176
     1
290
     0
176
     1
290
     0
176
     1
290
     0
176
     1
290
     0
176
     1
290
     0
176
     1
 90
       50
176
     1
 40
0.0
176
     1
 40
1.0
176
     1
 90
        0
176
     1
 62
    18
420
        0
176
     1
 90
       50
176
     1
 90
        3
176
     1
 62
     5
420
      255
176
     1
290
     0
176
     1
 90
       50
176
     1
 90
       50
176
     1
 90
       50
176
     1
290
     0
176
     1
 90
       50
176
     1
 62
   256
176
     0
 40
1.0
176
     0
 90
        2
176
     1
  1
strokes_ogs.tif
176
     1
290
     0
176
     1
 40
1.0
176
     1
 40
1.0
176
     1
  0
VISUALSTYLE
  5
180
102
{ACAD_REACTORS
330
99
102
}
330
99
100
AcDbVisualStyle
  2
X-Ray
 70
    25
177
     3
291
     0
 70
    58
 90
        2
176
     1
 90
        2
176
     1
 90
        1
176
     1
 90
        1
176
     1
 40
0.5
176
     1
 40
30.0
176
     1
 62
     7
420
 16777215
176
     1
 90
        1
176
     1
 90
        0
176
     1
 62
     7
176
     1
 62
   257
176
     1
 90
        1
176
     1
 90
        1
176
     1
 40
1.0
176
     1
 90
        8
176
     1
 62
     7
176
     1
 40
1.0
176
     1
 90
        1
176
     1
 90
        6
176
     1
 90
        2
176
     1
 62
     7
176
     1
 90
        3
176
     1
 90
        0
176
     1
 90
        0
176
     1
290
     0
176
     1
 90
       13
176
     1
 40
0.0
176
     1
 90
        0
176
     1
290
     0
176
     1
290
     1
176
     1
290
     1
176
     1
290
     0
176
     1
290
     0
176
     1
290
     0
176
     1
290
     0
176
     1
290
     0
176
     1
290
     0
176
     1
 90
       50
176
     1
 40
0.0
176
     1
 40
1.0
176
     1
 90
        0
176
     1
 62
    18
420
        0
176
     1
 90
       50
176
     1
 90
        3
176
     1
 62
     5
420
      255
176
     1
290
     0
176
     1
 90
       50
176
     1
 90
       50
176
     1
 90
       50
176
     1
290
     0
176
     1
 90
       50
176
     1
 62
   256
176
     0
 40
1.0
176
     0
 90
        2
176
     1
  1
strokes_ogs.tif
176
     1
290
     0
176
     1
 40
1.0
176
     1
 40
1.0
176
     1
  0
DICTIONARYVAR
  5
F0
102
{ACAD_REACTORS
330
66
102
}
330
66
100
DictionaryVariables
280
     0
  1
1:1
  0
DICTIONARYVAR
  5
EF
102
{ACAD_REACTORS
330
66
102
}
330
66
100
DictionaryVariables
280
     0
  1
STANDARD
  0
DICTIONARYVAR
  5
89
102
{ACAD_REACTORS
330
66
102
}
330
66
100
DictionaryVariables
280
     0
  1
STANDARD
  0
DICTIONARYVAR
  5
1B7
102
{ACAD_REACTORS
330
66
102
}
330
66
100
DictionaryVariables
280
     0
  1
Imperial24
  0
DICTIONARYVAR
  5
1B8
102
{ACAD_REACTORS
330
66
102
}
330
66
100
DictionaryVariables
280
     0
  1
Imperial24
  0
DICTIONARYVAR
  5
67
102
{ACAD_REACTORS
330
66
102
}
330
66
100
DictionaryVariables
280
     0
  1
2
  0
DICTIONARYVAR
  5
6B
102
{ACAD_REACTORS
330
66
102
}
330
66
100
DictionaryVariables
280
     0
  1
1
  0
DICTIONARYVAR
  5
14D
102
{ACAD_REACTORS
330
66
102
}
330
66
100
DictionaryVariables
280
     0
  1
0
  0
DICTIONARYVAR
  5
14E
102
{ACAD_REACTORS
330
66
102
}
330
66
100
DictionaryVariables
280
     0
  1
0
  0
BLOCKBASEPOINTPARAMETER
  5
39C
330
39B
100
AcDbEvalExpr
 90
        2
 98
       33
 99
        4
100
AcDbBlockElement
300
Base Point
 98
       33
 99
        4
1071
        0
100
AcDbBlockParameter
280
     1
281
     0
100
AcDbBlock1PtParameter
1010
45.5399258837
1020
34.10926079150001
1030
0.0
 93
        0
170
     0
171
     0
100
AcDbBlockBasepointParameter
1011
0.0
1021
0.0
1031
0.0
1012
0.0
1022
0.0
1032
0.0
  0
DICTIONARY
  5
194
330
22
100
AcDbDictionary
280
     1
281
     1
  0
DICTIONARY
  5
188
330
97
100
AcDbDictionary
280
     1
281
     1
  3
FBXASSET
360
189
  0
DICTIONARY
  5
186
330
96
100
AcDbDictionary
280
     1
281
     1
  3
FBXASSET
360
187
  0
DICTIONARY
  5
110
330
98
100
AcDbDictionary
280
     1
281
     1
  3
BUMPTILE
360
112
  3
DIFFUSETILE
360
111
  3
FBXASSET
360
18A
  3
OPACITYTILE
360
113
  3
REFLECTIONTILE
360
114
  0
DICTIONARY
  5
104
330
87
100
AcDbDictionary
280
     1
281
     1
  3
ACAD_ROUNDTRIP_2008_TABLESTYLE_CELLSTYLEMAP
360
1188
  0
XRECORD
  5
189
102
{ACAD_REACTORS
330
188
102
}
330
188
100
AcDbXrecord
280
     1
 70
     1
 90
429727718
  1
508B35C9-AEE7-456F-BE74-D52651303AC6
310
504B03040A0000080000B670623B3DEE336E79000000790000001B0000006175746F6465736B2D64657369676E2D7061636B6167652E786D6C3C3F786D6C2076657273696F6E3D22312E302220656E636F64696E673D227574662D3822203F3E3C666F726D6174733E3C666F726D61743E687474703A2F2F736368656D612E
310
6175746F6465736B2E636F6D2F64657369676E2D7061636B6167652F323030393C2F666F726D61743E3C2F666F726D6174733E504B0304140006080800B670623BD486FD9CA0000000F4000000130000005B436F6E74656E745F54797065735D2E786D6C7D8EC10E82300C865F65E91D8A1E8C310C0EEA1BF002731658846E
310
D98AC1B77784ABF1D8FE5FBFBF75BBCE937A534CCEB38643598122B6FEE978D0B0485F9C41B54DDD7D022595594E1A469170414C76A4D9A4D207E29CF43ECE46F218070CC6BECC4078ACAA135ACF422C856C0E68EA1BF5669944DDD7BCDE7B1F8E415D77AECB980613C2E4AC91FC167A2B244592486606FC29C8FD7F045B9A
310
EF7053A7E60B504B0304140006080800B670623B28ED286BEB0000007C01000008000000636F72652E786D6C8D90416EC3201045AF82665B6183218D6D61A254764FD00B204C5C94182C03558F5F9C3852BBEB6A467FFE9B197D71FA9E6FE8CBACC17AD7012D0820E3B41FAD9B3A48F1826B40272956EFE32F1B20A766D3C1
310
268314D3EAD3B24BDABB685CCCAAF3A3D94515828980F42D371D04FD696655A814B3235C8B45E9AB9A4C419F5D8653B2237A1CB163DE672FD6AC209BF3C08E0D1B30EB19C3FC9D72FCC6EB231EFA33EDE96BDD341517E5064B11EDFCBCAF57A3A2194156843498524CAA0FCA5B7268F9E185D42D21A2DCEC7FA0B48CFF8492
310
759155FBBB0F2C80A4F991FB408A72CB22977B50B96EB9C91F504B0304140006080800B670623B55019EA25F0000007C00000007000000636E782E786D6C4DCB3B0E80201045D1AD90E915ED2CF8AC45050C11660C8261F98AB1B07AC9C97D42D718D865D3E909258CFD00CCE24AC6E326A164D74DC0B4128928FF32603847
310
2BA13128B1252AC747C6BAB984FC68F0B87FE8960A5C09FE86CFB69FBA01504B0304140006080800B670623B7BC41AC871010000D40300000C0000006662782F636F72652E786D6CC553ED6E8320147D15C2DF4501B56B6D90A64BBB27D80B50A5CE54C120983EFEAE1F4DD7A56BBA5FF3879273EEE59E7310BE393735EA95
310
ED2AA333CC428A91D2B9292A5D66D8BB63B0C26823B835C67D2BC348CB46657880B1E0A535BE9DA1DC68A7B403549B42CDA0EC3AE530CA6B5864B8CB3F552343E91D5474A7B095F949962A6421D0502778E72C0840D390E18DC5F170E664C205F7BE2A66B62A605A75AC94C522DDEEE3651AEF837817C741F2CE92E02D592D
310
83FD6ECB76EC7595A651C2C9D02CB8AB9A8BBADC2AE954814544691A3016D0E883256BBA58278B17BA5A53CAC9507ED3E4DBE2C9265F691747B3DCA9ADC382819091F8E1162272A8933DE82182932144F88C09DF060D8140C84E1EEA8B8F1340BDCA9DB1093085F157AA97B557309586747CD0EF0B4EA64E983A6E0EAEEFCE
310
889E9EF17847386AA94B30211D2C0FDE0D3AF9A4610EAD5536E8DD1969631B593F67E381C33F5157F17725E5A636F6BF1491F980C8FC7B90E13E8A2F504B0304140006080800B670623B70102A487D0000009D0000000B0000006662782F636E782E786D6C4DCCD10A83201886E15B91FFDC95A5C30335ACCDFB886521330D
310
A76397BF1A1DECE883878F57749FD5A3B74D2F17830472A901D9F088930B8B849267CC01754AA418F3DF0D5018572BE160506249B16C274D761E8BCFBB7A179E27F65CB39A0F14D396184C9921B81F34C3ACA1B4B99ABB6E6F062A25AA5F69DF23ACBE504B0304140006080800B670623B3610CA3329010000120200003100
310
00006662782F42384135303843342D343331462D343546312D424341352D3532343432364645413344462F636F72652E786D6C8D515B6EC32010BC0AE22B55850D0E446E848992B43E412FE000495162B07854397EA176A4F62F3F2C9A9D991D58BEBB8F37F0AD7D30CE76905418026DA553C65E3A98E219B510EC04F7CEC5
310
3F3408EC30EA0E16180A7EF12E4D0B249D8DDAC68C5AA7F4020E21E80881BCE54B0783FCD2E3500D296646B856D320AFC34557A4CAEDCC133C449F0380794839A138B47B86DB2345744D7A44594FD0E1B867883594369BFE63BF7EEF793D0B054FC9A8456E548E63CE46FB674D8A58F068C6477CE9F510B582A2C1F80D1182
310
70F349E816B32D65AFB8DD62CCEB42FF274A937A52948C8DEB66893BCB021484D7734370E5D2E9F608A3EF93F3119479ABA0E50B14B8C298119A43CCC4FCFCECB8A18B6388CEE7EF5D5D4F994BD86CBBA182D76543B9FCAE2FD7B24DF103504B0304140006080800B670623B1B8617914E0100003303000030000000666278
310
2F42384135303843342D343331462D343546312D424341352D3532343432364645413344462F636E782E786D6CD593C16EC32010447F0571AD6CE3D489D20813A9877E410FBD62D82434182CC055F3F75D1292E692438FBD206B7698593D61BEFD1E2DF982108D773D6D6B460938E5B571FB9ECE6957AD29D90A1EBC4F7736
310
4A9C1CA1A759A682EF839FA72269D8C9D92654AD71C72206887E0E0A22CAF926B15E498B01E0AA19451807D01A34B919F16B070157417138917400F2F6FA41FCF0092A45DEE414C19BDC21783E4BD39D891265658C3D8DEA00A3ACE59CBC8678ACB54CB26EEB6BD7839D7E9348BE70AD9C8321B9BCA7F9A4A26C542347DEE0
310
50F09802D22BA6749A800A394DD62899107273365E3C82CFC6A55557BC06C10774B7ABE7AEC3B0F34CF06446280E154026D0542C187BA9DAB6628BF7B6DBB0E5A65B3EB1F58631DE64BBE083F7B65CC218087E22CABB042E51D1F2268F1FE12B3EA24D40D63E9CFE00120194D60B9D5BC67FE6D39CDF37E20AF817881F504B
310
0304140006080800B670623BBFEF2E3B690500003C100000340000006662782F42384135303843342D343331462D343546312D424341352D3532343432364645413344462F6F626A656374732E786D6CAD575D739B3814FD2B0CFB0C98D84E931D4227B6938EA793B6534F3BFB90198F0099B001899144EAECAFDF231018B0
310
D37A3FFC609090EEE7B94757C1FB7D915B2F54C88CB31BDB7727B64559CC938CA53776A576CE956DBD0F03C1B9EA2DB32D460A7A63EB693B0C52C1ABD24C257447AA5C8D66EF177F5832A68CDA569C13296F6C193FD182B8A4523CA1F2D94D88226EBADBBBBEDB2C1C8A4D05299F46424B222853B014F30C52ACC6287F389C
310
D85E1878FA7B18E87FB36AFAF62AAFF667A83F635211161F291B8999FAB3D5DDC5FCDA99CF6653677679E13B8BFBC5CAF1DF4D27CBCBE5F2FAF6EE1A8AA51290642C117467871F101B91C581D77CEA2C36869F3229E68CD1B8F61F1ED6361B89092D294B90C78C4A68EB793D190E7D1D9BDEE7A91E1B95FDE9F3BCEAEFE809
310
6A6D6F9F7D4B79F4275C90E7A04248AA51D5C4C738DAE06F72885AC4796EBE65D22A88A22223B995679120E2D50EB1542F098381188D4EA111AE3DB043FF20AF6F2B4AE3D7D83D65E5AECA730D4D3BAC91BD05FEA992B565D95F549CD6069B90AB2A63EACA38A45E4B6A87D781574F86817E4C2FCCC72690D62E2729520E37
310
9BAF234797BAF6D62B3BFC781FED37BA1E4F2B2F052FA9501A3E80569BB8F6A9A364D4FA67654E6F803383981F82F21591FF84F23D9882BC896C3FDBCF8C162508933B2E0AE4C69DD43F6BD2BE38DDDBF10BF86CB4FA784D37F3AF16075E67EC9030DECA1FC0A55373F5DFF3378C591FA9BDF485C10B0A8C8BA909E5262639
310
A8E72163488806A595734C81CB77D1DE0ED7604A303B76913CEC0272F412782FF88EFF4636D8AA56DF7B322474C4B767303F625997056C7B032C473C592B36CEBD15F3F9FF5233B7ABCDC74D257624A60F8658567497B14CE1EC3C80B76FD02011038F9EE9EB0F2E12387A9C844D3F09855125116D1D731DF8B43D2CF4E0A0
310
79A020C6BE946BCE0B7EA1E1219331CD73C228AF5A2DDD31A4B1DA918CE91350854D40A71723140BFA92E94E62B0626016CEFA5864A50E5977E8753CEDBEE1CBB7F52780D20E17AF0BA0F5F9B02A3AD07DCC732EB6D1EBB661421BE0C39E21BABF0FE16D22EA6929407C8DE596724C88B749B6DB5512BC7B228ADFD7CB7EA6
310
3A22397E690BA8D5D8D4E40CEC8CDA23C2C0B7D5898640101CEC9C6D331CE328CB93CAFBBAC70A642DF70DF95155945B52F08AA973C23469FD69ADEF84F7BB18F983A8F8C90E37F5D35980B2139A1C523540813E824EF83448CF7C72B598CE97D7CEEDDDDD3B6736BFBC771677EF66CE6A7E7139F7A793E9EDF2B2B3A8B624
310
0CDA13AA5F8388264EC4A0129909F3B7F5A16CEDF08128E97D680ACA4B9BE7B7B58BB638F0B00700EF36AE8B32A705658A68F83EE897FC2B41573190D1CCAF0B92D233A47CFEB019D9809933F67DD1A5467F8CF69AD9A5AE859342D45355448C64F968A371DC2D596ADC6E43D93D1B466F877A64E2893E54F23C4B40388995
310
525E5005DA3983ED45412510D3EFCA13737B3863F74BD30F2A12E5B4B5E489A025CE25500DB855B11ACE5BBFA185D35DD48D8DC3CE7DC69F2944DB42AA6F6CF09BCA622ADD08C7A36E7C6AE18000BAB08E040135C2D21C9D75B3A91B77BB746C403F38018DFE6EC939DD92F16B40BC05294B9CDA035AAD6D330AE27FE4786B
310
8E45145EA34A75BE1C263A676A35A8ACC6297337400BF16C54EF515F3F77CB77EB3583889C754FFA29081AA98E2222ADEF05DA3E63D2EDEA8B8756C05A7FB6CABC4A91CBF325398202CC952E70A008A830324BA200D5E5EF8F5F04C75DB4B0EE3340E071C98B823333B83577596BF3849B69F2085AA0FAFA212F26BEFF5877
310
FDE622B28D88A42E49E43326DA82D31E8CB006401E1DA726059ECEC168F97A6599036306A135688F9AD2E61A6EA178F4CD51974A9F2CCB9F36FE5EBD14601068D9C3BF01504B0304140006080000B670623B000000000000000000000000350000006662782F42384135303843342D343331462D343546312D424341352D35
310
32343432364645413344462F76657274696365732E62696E504B0304140006080800B670623BF270F1330600000004000000360000006662782F42384135303843342D343331462D343546312D424341352D3532343432364645413344462F747269616E676C65732E62696E636660600000504B0304140006080000B67062
310
3B000000000000000000000000370000006662782F42384135303843342D343331462D343546312D424341352D3532343432364645413344462F617474726962757465732E62696E504B0304140006080800B670623B08DA0BD19000000041010000360000006662782F42384135303843342D343331462D343546312D4243
310
41352D3532343432364645413344462F6469726563746F72792E786D6C858F410AC3201045AF22B36F53E9A60B35CBEEBAE80D244E44489C6234F4F835464A48035D0DF398FF9F8AF63D0E6CC63039F212F8F9020C7D47C6792B21C5FE7403D62A1188E2E60C98D7234A5830286103A55745067B9D86B8A3CF9C7F90C11DE6
310
07FB144396D7B6A82D282E9A152AD114D5EF2CB866EEE831B8EEA07A7BB5A8D7D61A2BAAEB7FD5F70921FF497D00504B0304140006080800B670623B3B4606F3FE000000A00100003B0000006662782F42384135303843342D343331462D343546312D424341352D3532343432364645413344462F7265736F75726365732F
310
636F72652E786D6C8D504B6E833010BD0A9A6D65B08134808CA354A427E8052C332156828DFCA97AFC9A40A576D7CDCCE87D344F8F9FBEE647F689CE6B6B7A6039850C8DB2A336530F315C4903D94970676DF82583CCC8197B5861107C72362E3BA4AC096842428D1D7107A5F71820538F74F4E0D50D6799CB1892C2DFF345
310
AABB9C306779A2934E701F5C0A906D4FD609C2A1B7D129F4BCD858C163D4E3AED163FAA9AF1A1D88F67CA98E6D35906AA82A52BFB39ABCD5CD915C86331BD86BD3B665CD8BD52C78D0F34F46E550061C419494B6843142CB0F5677F4D0D58717DA7494F26295FF31C565FCA7296A13AA728FBBD93C0896823C09C18BB5AFB4
310
9E65A6BD762BBE01504B010214000A0000080000B670623B3DEE336E79000000790000001B00000000000000000000000000000000006175746F6465736B2D64657369676E2D7061636B6167652E786D6C504B01021400140006080800B670623BD486FD9CA0000000F40000001300000000000000000000000000B2000000
310
5B436F6E74656E745F54797065735D2E786D6C504B01021400140006080800B670623B28ED286BEB0000007C010000080000000000000000000000000083010000636F72652E786D6C504B01021400140006080800B670623B55019EA25F0000007C000000070000000000000000000000000094020000636E782E786D6C50
310
4B01021400140006080800B670623B7BC41AC871010000D40300000C00000000000000000000000000180300006662782F636F72652E786D6C504B01021400140006080800B670623B70102A487D0000009D0000000B00000000000000000000000000B30400006662782F636E782E786D6C504B01021400140006080800B6
310
70623B3610CA3329010000120200003100000000000000000000000000590500006662782F42384135303843342D343331462D343546312D424341352D3532343432364645413344462F636F72652E786D6C504B01021400140006080800B670623B1B8617914E010000330300003000000000000000000000000000D10600
310
006662782F42384135303843342D343331462D343546312D424341352D3532343432364645413344462F636E782E786D6C504B01021400140006080800B670623BBFEF2E3B690500003C10000034000000000000000000000000006D0800006662782F42384135303843342D343331462D343546312D424341352D35323434
310
32364645413344462F6F626A656374732E786D6C504B01021400140006080000B670623B0000000000000000000000003500000000000000000000000000280E00006662782F42384135303843342D343331462D343546312D424341352D3532343432364645413344462F76657274696365732E62696E504B010214001400
310
06080800B670623BF270F133060000000400000036000000000000000000000000007B0E00006662782F42384135303843342D343331462D343546312D424341352D3532343432364645413344462F747269616E676C65732E62696E504B01021400140006080000B670623B00000000000000000000000037000000000000
310
00000000000000D50E00006662782F42384135303843342D343331462D343546312D424341352D3532343432364645413344462F617474726962757465732E62696E504B01021400140006080800B670623B08DA0BD1900000004101000036000000000000000000000000002A0F00006662782F42384135303843342D3433
310
31462D343546312D424341352D3532343432364645413344462F6469726563746F72792E786D6C504B01021400140006080800B670623B3B4606F3FE000000A00100003B000000000000000000000000000E1000006662782F42384135303843342D343331462D343546312D424341352D3532343432364645413344462F72
310
65736F75726365732F636F72652E786D6C504B0506000000000E000E0080040000651100000000
  0
XRECORD
  5
187
102
{ACAD_REACTORS
330
186
102
}
330
186
100
AcDbXrecord
280
     1
 70
     1
 90
429727718
  1
887D55A9-D0DD-414E-B741-A7DCD4DA2B4C
310
504B03040A0000080000B670623B3DEE336E79000000790000001B0000006175746F6465736B2D64657369676E2D7061636B6167652E786D6C3C3F786D6C2076657273696F6E3D22312E302220656E636F64696E673D227574662D3822203F3E3C666F726D6174733E3C666F726D61743E687474703A2F2F736368656D612E
310
6175746F6465736B2E636F6D2F64657369676E2D7061636B6167652F323030393C2F666F726D61743E3C2F666F726D6174733E504B0304140006080800B670623BD486FD9CA0000000F4000000130000005B436F6E74656E745F54797065735D2E786D6C7D8EC10E82300C865F65E91D8A1E8C310C0EEA1BF002731658846E
310
D98AC1B77784ABF1D8FE5FBFBF75BBCE937A534CCEB38643598122B6FEE978D0B0485F9C41B54DDD7D022595594E1A469170414C76A4D9A4D207E29CF43ECE46F218070CC6BECC4078ACAA135ACF422C856C0E68EA1BF5669944DDD7BCDE7B1F8E415D77AECB980613C2E4AC91FC167A2B244592486606FC29C8FD7F045B9A
310
EF7053A7E60B504B0304140006080800B670623BBC1638F5EC0000007C01000008000000636F72652E786D6C8D90416EC3201045AF82665B61836BE2D8C24471DB9CA01740401C94182C03558F5F9C3852BBEB6A467FFE9B197D7EF89E6EE8CB2CC17AD7032D0820E394D7D68D3DA478C67B4007C117EFE32F1B202727D3C3
310
2A83E0E3E2D3BC49CABB685CCCAAF3DA6CA20CC14440EA969B1E82BA98491632C5EC08D76296EA2A4753D06797E194AC468F2356E77DF66CCD02825543D50CACC62D39ED70FDC68EB8FD68F6F8787A6784342D1DDA1D2F5758F068A7E77DB518198D065111D2624A31A93E69DD11D6D5EC85EC3B4278B9DAFF4069D6FF8492
310
75F1B5DADE7D600104CD8FDC0782976B16B9DC83CA75CD4DFC00504B0304140006080800B670623B55019EA25F0000007C00000007000000636E782E786D6C4DCB3B0E80201045D1AD90E915ED2CF8AC45050C11660C8261F98AB1B07AC9C97D42D718D865D3E909258CFD00CCE24AC6E326A164D74DC0B4128928FF326038
310
472BA13128B1252AC747C6BAB984FC68F0B87FE8960A5C09FE86CFB69FBA01504B0304140006080800B670623B3586FFB671010000D40300000C0000006662782F636F72652E786D6CC553ED6E8320147D15C2DF4541A76D6D90A6DDD627D80B50A4CE54C120983EFEAE1F4DD7A55BBA5FF3879273EEE59E7310B6393735EA
310
95ED2AA3731C851423A5A5292A5DE6D8BB63B0C268C39935C67D29C3488B46E578803167A535BE9D2169B453DA01AA4DA16650749D7218C91A1639EEE4876A4428BC838AEE14B6429E44A9C228041AEA38EB9C0501681A32BC313F1ECE8C4C3867DE57C5CC56054CAB8E95B298A7F12E5EEED224C8E87E11242FE936C8DE96
310
AB60BB7F4D295D66D12E5B30323473E6AAE6A24E5A259C2A308F29CD82280A68FC1E256B9AAE93F489AED694323294DF34F9B678B0C957DA3DC7B3DCA9ADC33C022123F1CD2D44E450277AD04338234388F01913BE0D1A0281909D38D4171F27807A259DB1093085F157AA17B557309586747CD0CF0B46A64E983A6E0EAEEF
310
CE881F9EF1FB8E70D44297604238581EBC1B74B249C31C5AAB6CD0BB33D2C636A27ECCC62F0EFF445DC5DF95244D6DEC7F2922F30191F9F720C37DE49F504B0304140006080800B670623B4220A0FF7D0000009D0000000B0000006662782F636E782E786D6C4DCCD10A83201886E15B91FFDCE542CB0335D0EC3E6259C84A
310
C3E9D8E5AF46073BFAE0E1E315DD675BD1DBA5978F41C2FD4600B9F088930F8B849267CC01754AA418F3DF0D50183727E164506249B1EC174D6E1ECB9A0F5D7D785E68DB8151CD286E5A5363CA6B8A39E90D36D40E96B086F55A43A544F52B1D7B86D517504B0304140006080800B670623B2FA3FEDE290100001202000031
310
0000006662782F45374635344235342D363743322D343832342D383044432D4334454645303536354442422F636F72652E786D6C8D515B6EC32010BC0AE22B55850D2E386E848994D7097A0117488A1283C5A3CAF10BB523B57FF961D1ECCCECC0F2ED7DBC816FED8371B687A4C210682B9D32F6D2C314CFA883602BB8772E
310
FEA141608751F7B0C050F08B77695A20E96CD43666D43AA5177008414708E42D5F7A18E4971E876A483133C2B59A06791D2EBA22556E679EE021FA1C00CC43CA09C5717D6274C7286AD7FB06D1AEA1A8C3873DDAD3E3E98859CB0EBB1DAF67A1E02919B5C88DCA71CCD968FFAC49110B1ECDF8882FBD1EA256503418BF2342
310
106E3E08DD60B6A1EC15771B8C795DE8FF4469524F8A92B1F1AD59E2CEB20005E1F5DC105CB9F4797B84D1F7C9F908CABC55D0F2050A5C61CC1AD2F27A26E6E767C7962E8E213A9FBF7775FDCC5CC266DB960A5E970DE5F2BBBE5CCB36C50F504B0304140006080800B670623B1B8617914E01000033030000300000006662
310
782F45374635344235342D363743322D343832342D383044432D4334454645303536354442422F636E782E786D6CD593C16EC32010447F0571AD6CE3D489D20813A9877E410FBD62D82434182CC055F3F75D1292E692438FBD206B7698593D61BEFD1E2DF982108D773D6D6B460938E5B571FB9ECE6957AD29D90A1EBC4F77
310
364A9C1CA1A759A682EF839FA72269D8C9D92654AD71C72206887E0E0A22CAF926B15E498B01E0AA19451807D01A34B919F16B070157417138917400F2F6FA41FCF0092A45DEE414C19BDC21783E4BD39D891265658C3D8DEA00A3ACE59CBC8678ACB54CB26EEB6BD7839D7E9348BE70AD9C8321B9BCA7F9A4A26C542347DE
310
E050F09802D22BA6749A800A394DD62899107273365E3C82CFC6A55557BC06C10774B7ABE7AEC3B0F34CF06446280E154026D0542C187BA9DAB6628BF7B6DBB0E5A65B3EB1F58631DE64BBE083F7B65CC218087E22CABB042E51D1F2268F1FE12B3EA24D40D63E9CFE00120194D60B9D5BC67FE6D39CDF37E20AF817881F50
310
4B0304140006080800B670623B29652116630500003C100000340000006662782F45374635344235342D363743322D343832342D383044432D4334454645303536354442422F6F626A656374732E786D6CAD575D739B3814FD2B0CFB0C989834C90EA1639B24E3E9A6EDD4D3CE3E64C623834CD8006224913AFDF57B040203
310
B65BEF871F0C12D2FD3CF7E8CA7FBFCB33E3957291B2E2D674ED8969D02262715A24B76625B7D6B569BC0F7CCE98EC2D338D82E4F4D654D366E0279C55A59E8AE99654991CCDDECFFF3444440B6A1A514684B83545F44C7362934AB2988A173B2692D8C97667BB76B3702836E1A47C1E092D09A78584A5982F20C5688C7287
310
C389E904BEA3BE07BEFAD7ABA6A75739B53F43FD69212429A20365233153D70BEF2E2E6FAC4BCF9B5ADEBB0BD79ADFCF43CBBD9A4E16EF168B9BD9DD0D140BC921495BC2E9D60C1E101B9E46BED37CEA2CD6861F3329624541A3DA7F7858DBAC25C6B4A4458C3CA654405BCFEBC970E8AAD8F43E4FD558ABEC4F9FE7557F47
310
4F506B7BFBEC5BCA367FC105710E2AB8A00A554D7CB4A30DFE26FBA86D18CBF4B75418399194A72433B274C3097F33032C554B027F2046A1932B842B0FCCC0DDCBEBDB8AD2F835768F59B9ADB24C41D30C6A64AF817F2A456D59FA83F2E3DA60137255A585BCD60EC9B7929AC18DEFD49381AF1ED30BFDB109A4B1CD488294
310
C3CDE6EBC8D185AABD6568061FEE37BB95AAC7E3CA4BCE4ACAA5820FA0D526AE7DAA2869B5EE5999531BE0CC20E6FBA07C41E43FA27CF7A6206F3CDD793B4F6B919C1462CB788EDCD893FA674CDA17AB7B3B7C019F8D561FAEE966FED562DFE98C1D12C6A9FC015C2A35D7FF3D7FC398F591DA4B5FE0BFA2C0189FEA50AE22
310
92817A1ED3020951A03432862970F976B33383259812CC8E5D240BBA801CBCF8CE2BBEE3BF910DB6AAD5F79E05123AE2DB33981FB1ACCB02B69D00CB014FD68AB573A7627EF9BFD4CC2C5C7D58557C4B22FAA88925A4DBB44825CECE3D78FB060D1231F0E885BE7D673C86A3874958F593906B5502D1563157814FDAC3420D
310
F69A070A22EC4B98E23CFF171A1E5311D12C23056555ABA53B8614563B92D17D02AAB009E8F46284624E5F53D5490C560CCCC2591FF1B45421EB0EBD8EA7ED13BE7C5D7E0428CD60FEF60779EB13E6664FF711CB185F6FDED60D139A001FF60CD1FD6D086F1D51474901E26B2CB794A343BC8ED3EDB612E0DD2351FCB65CF4
310
33D511C9E14B5B40ADC6A6263DB0336A8F700DDF56271A024E70B0B3629DE21847591E55DED73D56206AB927E46FAABC5C939C55853C274C93D69FD6FA4E78BF8B11DF898C9ECD60553FAD39283BA6F18984AA23E8884F83F45C5F5F859797B31B2B9C84A1E5B9DE9D35BFF25C6B76152E422F9C5DCC3D847F5801ED09D5AF
310
41441327A25FF15487F9EB725FB666F048A4701E9A827292E6F97569A32DF61DEC01C0BB8DCBBCCC684E0B49147C1FD54BF685A0AB18C868E6973949E819523E3DAC463660E68C7D9F55A9D1EFA3BD7A76A16AE1A810F95CE59B82A4D968A376DC2E8B44BBDD86B27B368CDE0ED548C7137DA860591A83706223A12CA712B4
310
7306DBF39C0A20A6DF95C7FAF670C6EED7A61F946493D1D6926782963813403548A78AE470DEF80D2D9CEAA26E4D1C76F60BFE74219A06527D6B82DF641A51616F703CAAC6A7160E08A00BEB4810A0274592A1B36E3675E36E978A0DE80727A0D6DF2D39A75BD27E0D8837276589537B40ABB56D5A41F48F1C6FCD3188C4EB
310
A6929D2FFB89CE995A4D00AE813BDD032DC48B56BD437DFDDC2DD7AED70C2272D63DE9A72068A45A92F0A4BE17A8A06B9366E16707AD80B1FC649459952097E74BB23805982B55E0401150A165964402AA8BDF9F3E7386BB686EDCA780C0D382E5392BF460A6EFB2C6EA1937D3F809B440D5F5435C4C5CF7A9EEFAF54564BD
310
2182DA24162F98680B4E7930C21A0079709CEAEB99A372305ABE0C0D7D6078105A83F6A0296DAEE1068A47DD1C55A9F4C9B2FC69E3EFD44B81028E963DF81B504B0304140006080000B670623B000000000000000000000000350000006662782F45374635344235342D363743322D343832342D383044432D433445464530
310
3536354442422F76657274696365732E62696E504B0304140006080800B670623BF270F1330600000004000000360000006662782F45374635344235342D363743322D343832342D383044432D4334454645303536354442422F747269616E676C65732E62696E636660600000504B0304140006080000B670623B00000000
310
0000000000000000370000006662782F45374635344235342D363743322D343832342D383044432D4334454645303536354442422F617474726962757465732E62696E504B0304140006080800B670623B08DA0BD19000000041010000360000006662782F45374635344235342D363743322D343832342D383044432D4334
310
454645303536354442422F6469726563746F72792E786D6C858F410AC3201045AF22B36F53E9A60B35CBEEBAE80D244E44489C6234F4F835464A48035D0DF398FF9F8AF63D0E6CC63039F212F8F9020C7D47C6792B21C5FE7403D62A1188E2E60C98D7234A5830286103A55745067B9D86B8A3CF9C7F90C11DE607FB144396
310
D7B6A82D282E9A152AD114D5EF2CB866EEE831B8EEA07A7BB5A8D7D61A2BAAEB7FD5F70921FF497D00504B0304140006080800B670623B6378F24DFF000000A00100003B0000006662782F45374635344235342D363743322D343832342D383044432D4334454645303536354442422F7265736F75726365732F636F72652E
310
786D6C8D504B6E833010BD0A9A6D65B0094E42641C85B639412F6099496225D8C89FAAC7AF09546A77DDCC8CDE47F3F4C4F16B7C149FE88371B603565228D06A37187BED20C50BD9437194C23B177FC9A0B06AC40E6618A4B87A97A615D2CE46B431A3D60DB8822A048C50E8473E3A08FA86A32A558A5911EEE5A4F45D5DB1
310
6465A6B34E8A107D0E502C4FE609D26370C96B0CA25A58295232C3AA3143FE692E063D485EF7F5AEE71BD2D2F39634AFFC44DAF7DD9E9CCE6F9CD25DCBFA762BAAD92C4534E34F46ED51451C40D694B6843142EB0FD61C283F34FC85EE0F948A6A96FF31A569F8A729191B37F51A77B105902C0779125254735F793DCBCC7B
310
EE567E03504B010214000A0000080000B670623B3DEE336E79000000790000001B00000000000000000000000000000000006175746F6465736B2D64657369676E2D7061636B6167652E786D6C504B01021400140006080800B670623BD486FD9CA0000000F40000001300000000000000000000000000B20000005B436F6E
310
74656E745F54797065735D2E786D6C504B01021400140006080800B670623BBC1638F5EC0000007C010000080000000000000000000000000083010000636F72652E786D6C504B01021400140006080800B670623B55019EA25F0000007C000000070000000000000000000000000095020000636E782E786D6C504B010214
310
00140006080800B670623B3586FFB671010000D40300000C00000000000000000000000000190300006662782F636F72652E786D6C504B01021400140006080800B670623B4220A0FF7D0000009D0000000B00000000000000000000000000B40400006662782F636E782E786D6C504B01021400140006080800B670623B2F
310
A3FEDE290100001202000031000000000000000000000000005A0500006662782F45374635344235342D363743322D343832342D383044432D4334454645303536354442422F636F72652E786D6C504B01021400140006080800B670623B1B8617914E010000330300003000000000000000000000000000D2060000666278
310
2F45374635344235342D363743322D343832342D383044432D4334454645303536354442422F636E782E786D6C504B01021400140006080800B670623B29652116630500003C10000034000000000000000000000000006E0800006662782F45374635344235342D363743322D343832342D383044432D4334454645303536
310
354442422F6F626A656374732E786D6C504B01021400140006080000B670623B0000000000000000000000003500000000000000000000000000230E00006662782F45374635344235342D363743322D343832342D383044432D4334454645303536354442422F76657274696365732E62696E504B01021400140006080800
310
B670623BF270F13306000000040000003600000000000000000000000000760E00006662782F45374635344235342D363743322D343832342D383044432D4334454645303536354442422F747269616E676C65732E62696E504B01021400140006080000B670623B0000000000000000000000003700000000000000000000
310
000000D00E00006662782F45374635344235342D363743322D343832342D383044432D4334454645303536354442422F617474726962757465732E62696E504B01021400140006080800B670623B08DA0BD190000000410100003600000000000000000000000000250F00006662782F45374635344235342D363743322D34
310
3832342D383044432D4334454645303536354442422F6469726563746F72792E786D6C504B01021400140006080800B670623B6378F24DFF000000A00100003B00000000000000000000000000091000006662782F45374635344235342D363743322D343832342D383044432D4334454645303536354442422F7265736F75
310
726365732F636F72652E786D6C504B0506000000000E000E0080040000611100000000
  0
XRECORD
  5
112
102
{ACAD_REACTORS
330
110
102
}
330
110
100
AcDbXrecord
280
     1
270
     1
271
     1
  0
XRECORD
  5
111
102
{ACAD_REACTORS
330
110
102
}
330
110
100
AcDbXrecord
280
     1
270
     1
271
     1
  0
XRECORD
  5
18A
102
{ACAD_REACTORS
330
110
102
}
330
110
100
AcDbXrecord
280
     1
 70
     0
 90
1778669749
  1
9BF507EE-FAF7-4A99-A33D-4EE51894BC40
310
504B03040A0000080000B670623B3DEE336E79000000790000001B0000006175746F6465736B2D64657369676E2D7061636B6167652E786D6C3C3F786D6C2076657273696F6E3D22312E302220656E636F64696E673D227574662D3822203F3E3C666F726D6174733E3C666F726D61743E687474703A2F2F736368656D612E
310
6175746F6465736B2E636F6D2F64657369676E2D7061636B6167652F323030393C2F666F726D61743E3C2F666F726D6174733E504B0304140006080800B670623BD486FD9CA0000000F4000000130000005B436F6E74656E745F54797065735D2E786D6C7D8EC10E82300C865F65E91D8A1E8C310C0EEA1BF002731658846E
310
D98AC1B77784ABF1D8FE5FBFBF75BBCE937A534CCEB38643598122B6FEE978D0B0485F9C41B54DDD7D022595594E1A469170414C76A4D9A4D207E29CF43ECE46F218070CC6BECC4078ACAA135ACF422C856C0E68EA1BF5669944DDD7BCDE7B1F8E415D77AECB980613C2E4AC91FC167A2B244592486606FC29C8FD7F045B9A
310
EF7053A7E60B504B0304140006080800B670623BCA089DFFEC0000007C01000008000000636F72652E786D6C8D90416E83301045AF62CDB632D8402020E32882F604BD80653BC44AB011B6AB1EBF262152BBEB6A467FFE9B197D76FA9EEFE84BAFDE38DB03CD08206DA553C64E3DC470C1474027CE56E7C22F1B202B66DDC3
310
260367D3EAE2B24BD2D9A06D48AA754AEFA2F05E0740F29E9A1EBCBCEA59642286E4F0B76C11F226269DD15797E0188D42CF2346A57DE662F40ABCAEC77628C6120F654571D50C04B7F5B9C1E3997CD4F550BE3745C3F20DE62C98F9755FAE5A04AD801784B498524C8A4F5A75E4D055873772EC0861F966FF03C545FD138A
310
C686B2D8DF7D621E384D8F3C069CE55B16A93C824A75CB8DFF00504B0304140006080800B670623B55019EA25F0000007C00000007000000636E782E786D6C4DCB3B0E80201045D1AD90E915ED2CF8AC45050C11660C8261F98AB1B07AC9C97D42D718D865D3E909258CFD00CCE24AC6E326A164D74DC0B4128928FF326038
310
472BA13128B1252AC747C6BAB984FC68F0B87FE8960A5C09FE86CFB69FBA01504B0304140006080800B670623B68FC0B7272010000D40300000C0000006662782F636F72652E786D6CC5535B6E833010BC8AE5DF0A6C1E8124328E22D29EA01770C0A128602363A31CBFCB234A53A555FA553EC09AD9F5CE8C31DB5DDA060D
310
D2F4B556190E7C8A9154852E6B5565D8D993B7C668C799D1DA7E29C3488956667884316795D1AE5BA0422B2B950554E9522EA0E87B69312A1A5864B82F3E642B7CE12C54F467BF13C55954D20F7CA0A18EB3DE1A1080E621E31BF3D3F1C2C88C73E65C5D2E6C5DC2B4FA544B8379921C36797888BC3C8A032F4E73EA6D927D
310
EA1DF6F42D49F2E8350D5346C666CE6CDD5ED515460A2B4BCC434A375E1078347C0FE22D5D6DE3D50B5D6F2965642CBF6B725DF96493AB958DC245EEDCD6631E809089F8E61622B2A81703E8219C913144F84C09DF070D8140C8561C9BAB8F3340832CAC363130A576376A108D933095FA747AD0CF0B46E64E983A6D0EAE1F
310
CE089F9EF1FB8E70D44255604258581E9D1D75B259C3125A278D37D80B52DAB4A279CEC62F0EFF44DDC43F9454E8469BFF5244960322CBEF41C6FBC83F01504B0304140006080800B670623B0F71DDB67E0000009D0000000B0000006662782F636E782E786D6C4DCCD10A83201886E15B91FFDCA54DB73F502386BB8F5816
310
32D3703976F9ABD1C18E3E78F87855FB990379BBFCF2296AE02706C4C5471A7C9C349475A408A4352AA7B4FEDD80C47E761A7606A3A69CCA72D0E0C6BE8475D3E0E3F3409428EA6B27A84079A782899AA2EC1A7AE3ECCC2FD858CB2D544655BFD2B67BD87C01504B0304140006080800B670623BE134B4FB28010000120200
310
00310000006662782F38353834323741342D343835462D343034322D383541392D4331303331363839454531452F636F72652E786D6C8D515B6EC32010BC0AE22B55850D0EA424C24451959EA0172086A42831583CAA1CBF503B52FB971F16CDCECC0EACD8DFC71BF836215AEF7A481A0C817183D7D65D7A98D3197108F652
310
04EFD31F1A044E8DA6871586525C82CFD3020DDE25E352419DD76601558C264130DCCAA58771F832A36A544E8511AFCDA486ABBA988634A55D7852C4144A00300FA927949C71DABD1D28A29C7D208A6987383B6CD13BC16BB2E1DBE3911C453B0BA5C8D9EA456E758963CFD684674DAA588A64C747FC2118958C86B2C3788B
310
0841B8FB247487D98EB257CC77188BB6D2FF89F2A49F1465EBD2BA5BE2CEB2082511EDDC9042FB7CBA3DC298FBE4430275DE2A9AE1054ADC60CC08E3A29D89E5F9C5714317C7987C28DFBBBA9E0A97B0D97643A568EB864AF95D5FA9759BF207504B0304140006080800B670623B1B8617914E010000330300003000000066
310
62782F38353834323741342D343835462D343034322D383541392D4331303331363839454531452F636E782E786D6CD593C16EC32010447F0571AD6CE3D489D20813A9877E410FBD62D82434182CC055F3F75D1292E692438FBD206B7698593D61BEFD1E2DF982108D773D6D6B460938E5B571FB9ECE6957AD29D90A1EBC4F
310
77364A9C1CA1A759A682EF839FA72269D8C9D92654AD71C72206887E0E0A22CAF926B15E498B01E0AA19451807D01A34B919F16B070157417138917400F2F6FA41FCF0092A45DEE414C19BDC21783E4BD39D891265658C3D8DEA00A3ACE59CBC8678ACB54CB26EEB6BD7839D7E9348BE70AD9C8321B9BCA7F9A4A26C542347
310
DEE050F09802D22BA6749A800A394DD62899107273365E3C82CFC6A55557BC06C10774B7ABE7AEC3B0F34CF06446280E154026D0542C187BA9DAB6628BF7B6DBB0E5A65B3EB1F58631DE64BBE083F7B65CC218087E22CABB042E51D1F2268F1FE12B3EA24D40D63E9CFE00120194D60B9D5BC67FE6D39CDF37E20AF817881F
310
504B0304140006080800B670623B5933D422630500003B100000340000006662782F38353834323741342D343835462D343034322D383541392D4331303331363839454531452F6F626A656374732E786D6CAD575B6FA33814FE2B887D0642934E9B156594264D158D3A534DD4D13E548A0C38942D60649B4EBABF7E3F8321
310
40924EF6928780CDF1B97EE762EFF32E4B8D37CA45C2F21BD3B547A641F39045491EDF98A5DC5AD7A6F1D9F73863B243661A39C9E88DA9B64DDF8B392B0BBD15D12D295339D85DDEFE618890E6D434C2940871638AF08566C426A5641115AF764424B1E3EDCE76ED9AB0CF36E6A47819302D08A7B984A6D8CFC1C5A89572FB
310
CB91E9F89EA3BEFB9EFAD754E3D3544E654F5F7E920B49F2F040D880CDD89D2CEE2E2EA7D6E56432B6269F2E5CEB7679BBB0DCABF168FE693E9FCEEEA6102C240727AD09A75BD3BF876F78127A4EFDA9D5582B7E4CA590E5390D2BFB6161A5B3E618D182E611E2985001691DAB47FDA5AB7CD3F93C566B2DB2BB7D9E55DD13
310
1D468DEECDB3AB290BFE8409E21C54704115AA6AFF68436BFC8DF65E0B184BF5B74418199194272435D224E084BF9B3E481589EFF5D828747285706581E9BB7B7E5D5D911ABFC6EE312DB7659A2A689A7E85EC0DF04FA5A8344BFEA2FCB834E8845895492EAFB541F2BDA0A63FF59C6AD3F7D4637CA13FD68E34B629891172
310
98597F1D183A57B9B75A98FE9765B05BAB7C3C2EBCE0ACA05C2AF8005A4DE09AA7F29216EB9E15397500C6F47CBE77CA7778FE2BD277AF0AE2C693DD6437D1522427B9D8329E2136F6A8FA19A3E6C56ADF0E5F50CF06D48734EDCEBF22F69C56D97EC138153F804B85E6FABFC7AFEFB32E523BE1F3BD372418E363EDCA7548
310
52949E8724474014288D94610BB57C1BEC4C7F854A89CA8E5324F55B871CBC78CE1BBEE3BFE68D6A5589EF3C730474506FCFA8FCF0659516D0ED04580EEA6425581B77CAE797FF4BCECC16EB2FEB926F49481F746159D06D922712BD730FDEAE42BD40F42C7AA5EF3F198F60E86110D6DD20645A9480B795CF95E3E3A659A8
310
C55E724F408873315335CFFB8584874484344D494E59D94869DB90C26A5B64F49C802CAC1D3ABE18A098D3B7444D123D8A9E5AE8F5214F0AE5B2B6E9B575DA3E61CBD3EA2B4009FA940524DD1305FB6A1FB294F14DF0BEA90BA109ECE1481FDC3FFAE8D60E75141700BE82725371B4873751B2DD960265F788137FACE6DD40
310
B575E4F0A5C99F46629D92131467A41EE11ABD8D4CCC039CA0AFB37C93A08B232B8F0AEFCA1E0A1015DF13FC83322B362463652ECF71D3A8B1A7D1BE65DE1D62C44F22C317D35F574FEB16153BA2D13E543D10A80E74C4A65E78A6B7CBCBD1D5DD9DB59C2DAFACC96C3AB566E3F1C29ADCDD5DBAD7D3C9ED7C822ED74F80A6
310
41755310DE4443F44A9E68373FADF6596BFA0F440AE7BECE2727AE9F4F2B1B53B1E7E00CF0DD1E5C65454A339A4BA2D0FBA05ED2EF0443458F47BDBFCA484CCFE0F2ED7E3DD0013B679C7B5499467F0ECEEADDB9CA85A34CE44B99053949D2C1416DB85DE4B136BB7165FBAC0B7AB3542BED4F8CA182A549847A1319316519
310
95A83A67147B9E5101C47487F2485F1ECE38FD568F839204296D3479219888530154036E6528FBFBC66F98E0D4107563A2D7D9AFF8D389681A08F58D89F22693900A3B407754734FC51C10C010D6D640809EE4718AC1BA3ED4AEDB53CA37283F68805A7E4B72CEB0A4EDEAD5DD8C14059A76AFAA56BA6901E13F32BC51C720
310
12AF41295B5BF61BAD3195181FB506E6B40F4C10AF5AF40EF9F5B159AE5DD1F43C72D635E94310D45C2D49785C5D0B94D3B54AB3C5A38349C0587D338AB48C11CBF339599C02CCA54A70A008A8D03C0B2201D5F9EFCF8F9CE12A9A19CB0410789EB32C63B95ECCF455D658BFE0621A3DA32C5075FB101723D77DAE867E7D0F
310
D90444509B44E2151B4DC2290B065803200FBAA9BE9D392A0603F2D5C2D00D6302A615680F66D2FA166E2079D4C551A54AB758161FCEFD4E450A14704CECFEDF504B0304140006080000B670623B000000000000000000000000350000006662782F38353834323741342D343835462D343034322D383541392D4331303331
310
363839454531452F76657274696365732E62696E504B0304140006080800B670623BF270F1330600000004000000360000006662782F38353834323741342D343835462D343034322D383541392D4331303331363839454531452F747269616E676C65732E62696E636660600000504B0304140006080000B670623B000000
310
000000000000000000370000006662782F38353834323741342D343835462D343034322D383541392D4331303331363839454531452F617474726962757465732E62696E504B0304140006080800B670623B08DA0BD19000000041010000360000006662782F38353834323741342D343835462D343034322D383541392D43
310
31303331363839454531452F6469726563746F72792E786D6C858F410AC3201045AF22B36F53E9A60B35CBEEBAE80D244E44489C6234F4F835464A48035D0DF398FF9F8AF63D0E6CC63039F212F8F9020C7D47C6792B21C5FE7403D62A1188E2E60C98D7234A5830286103A55745067B9D86B8A3CF9C7F90C11DE607FB1443
310
96D7B6A82D282E9A152AD114D5EF2CB866EEE831B8EEA07A7BB5A8D7D61A2BAAEB7FD5F70921FF497D00504B0304140006080800B670623BD9A3B367FE000000A00100003B0000006662782F38353834323741342D343835462D343034322D383541392D4331303331363839454531452F7265736F75726365732F636F7265
310
2E786D6C8D504B6E833010BD0A9A6D65B01D0201194711694FD00B586642AD043BF2A7EAF16B122AB5BB6E6646EFA3797AE2F8B5DC8A4FF4C1383B002B291468B59B8C9D0748F1420E501CA5F0CEC55F3228AC5A708015062966EFD27D83B4B3116DCCA875136EA00A012314FA968F0182FEC045952AC5AC08D7F2AEF455CD
310
58B232D3592745883E07289E4FD609D26370C96B0CA27AB252A464A64D63A6FCD35C0C7A904D73EE467EE664DCD58CD4ED4849D79C5A723ED1B7A61977AF2D6F45B59AA58866F9C9A83DAA8813484E6947182394BFB3BAA7FBBEDEBFD0434FA9A856F91F53BA4FFF342563E38E6F719FB60092E5200F428A6AED2BAF479979
310
AFDDCA6F504B010214000A0000080000B670623B3DEE336E79000000790000001B00000000000000000000000000000000006175746F6465736B2D64657369676E2D7061636B6167652E786D6C504B01021400140006080800B670623BD486FD9CA0000000F40000001300000000000000000000000000B20000005B436F6E
310
74656E745F54797065735D2E786D6C504B01021400140006080800B670623BCA089DFFEC0000007C010000080000000000000000000000000083010000636F72652E786D6C504B01021400140006080800B670623B55019EA25F0000007C000000070000000000000000000000000095020000636E782E786D6C504B010214
310
00140006080800B670623B68FC0B7272010000D40300000C00000000000000000000000000190300006662782F636F72652E786D6C504B01021400140006080800B670623B0F71DDB67E0000009D0000000B00000000000000000000000000B50400006662782F636E782E786D6C504B01021400140006080800B670623BE1
310
34B4FB280100001202000031000000000000000000000000005C0500006662782F38353834323741342D343835462D343034322D383541392D4331303331363839454531452F636F72652E786D6C504B01021400140006080800B670623B1B8617914E010000330300003000000000000000000000000000D3060000666278
310
2F38353834323741342D343835462D343034322D383541392D4331303331363839454531452F636E782E786D6C504B01021400140006080800B670623B5933D422630500003B10000034000000000000000000000000006F0800006662782F38353834323741342D343835462D343034322D383541392D4331303331363839
310
454531452F6F626A656374732E786D6C504B01021400140006080000B670623B0000000000000000000000003500000000000000000000000000240E00006662782F38353834323741342D343835462D343034322D383541392D4331303331363839454531452F76657274696365732E62696E504B01021400140006080800
310
B670623BF270F13306000000040000003600000000000000000000000000770E00006662782F38353834323741342D343835462D343034322D383541392D4331303331363839454531452F747269616E676C65732E62696E504B01021400140006080000B670623B0000000000000000000000003700000000000000000000
310
000000D10E00006662782F38353834323741342D343835462D343034322D383541392D4331303331363839454531452F617474726962757465732E62696E504B01021400140006080800B670623B08DA0BD190000000410100003600000000000000000000000000260F00006662782F38353834323741342D343835462D34
310
3034322D383541392D4331303331363839454531452F6469726563746F72792E786D6C504B01021400140006080800B670623BD9A3B367FE000000A00100003B000000000000000000000000000A1000006662782F38353834323741342D343835462D343034322D383541392D4331303331363839454531452F7265736F75
310
726365732F636F72652E786D6C504B0506000000000E000E0080040000611100000000
  0
XRECORD
  5
113
102
{ACAD_REACTORS
330
110
102
}
330
110
100
AcDbXrecord
280
     1
270
     1
271
     1
  0
XRECORD
  5
114
102
{ACAD_REACTORS
330
110
102
}
330
110
100
AcDbXrecord
280
     1
270
     1
271
     1
  0
CELLSTYLEMAP
  5
1188
102
{ACAD_REACTORS
330
104
102
}
330
104
100
AcDbCellStyleMap
 90
        3
300
CELLSTYLE
  1
TABLEFORMAT_BEGIN
 90
        5
170
     1
 91
        0
 92
    32768
 62
   257
 93
        1
300
CONTENTFORMAT
  1
CONTENTFORMAT_BEGIN
 90
        0
 91
        0
 92
      512
 93
        0
300

 40
0.0
140
1.0
 94
        5
 62
     0
340
11
144
0.25
309
CONTENTFORMAT_END
171
     1
301
MARGIN
  1
CELLMARGIN_BEGIN
 40
0.06
 40
0.06
 40
0.06
 40
0.06
 40
0.18
 40
0.18
309
CELLMARGIN_END
 94
        6
 95
        1
302
GRIDFORMAT
  1
GRIDFORMAT_BEGIN
 90
        0
 91
        1
 62
     0
 92
       -2
340
0
 93
        0
 40
0.045
309
GRIDFORMAT_END
 95
        2
302
GRIDFORMAT
  1
GRIDFORMAT_BEGIN
 90
        0
 91
        1
 62
     0
 92
       -2
340
0
 93
        0
 40
0.045
309
GRIDFORMAT_END
 95
        4
302
GRIDFORMAT
  1
GRIDFORMAT_BEGIN
 90
        0
 91
        1
 62
     0
 92
       -2
340
0
 93
        0
 40
0.045
309
GRIDFORMAT_END
 95
        8
302
GRIDFORMAT
  1
GRIDFORMAT_BEGIN
 90
        0
 91
        1
 62
     0
 92
       -2
340
0
 93
        0
 40
0.045
309
GRIDFORMAT_END
 95
       16
302
GRIDFORMAT
  1
GRIDFORMAT_BEGIN
 90
        0
 91
        1
 62
     0
 92
       -2
340
0
 93
        0
 40
0.045
309
GRIDFORMAT_END
 95
       32
302
GRIDFORMAT
  1
GRIDFORMAT_BEGIN
 90
        0
 91
        1
 62
     0
 92
       -2
340
0
 93
        0
 40
0.045
309
GRIDFORMAT_END
309
TABLEFORMAT_END
  1
CELLSTYLE_BEGIN
 90
        1
 91
        1
300
_TITLE
309
CELLSTYLE_END
300
CELLSTYLE
  1
TABLEFORMAT_BEGIN
 90
        5
170
     1
 91
        0
 92
        0
 62
   257
 93
        1
300
CONTENTFORMAT
  1
CONTENTFORMAT_BEGIN
 90
        0
 91
        0
 92
      512
 93
        0
300

 40
0.0
140
1.0
 94
        5
 62
     0
340
11
144
0.18
309
CONTENTFORMAT_END
171
     1
301
MARGIN
  1
CELLMARGIN_BEGIN
 40
0.06
 40
0.06
 40
0.06
 40
0.06
 40
0.18
 40
0.18
309
CELLMARGIN_END
 94
        6
 95
        1
302
GRIDFORMAT
  1
GRIDFORMAT_BEGIN
 90
        0
 91
        1
 62
     0
 92
       -2
340
0
 93
        0
 40
0.045
309
GRIDFORMAT_END
 95
        2
302
GRIDFORMAT
  1
GRIDFORMAT_BEGIN
 90
        0
 91
        1
 62
     0
 92
       -2
340
0
 93
        0
 40
0.045
309
GRIDFORMAT_END
 95
        4
302
GRIDFORMAT
  1
GRIDFORMAT_BEGIN
 90
        0
 91
        1
 62
     0
 92
       -2
340
0
 93
        0
 40
0.045
309
GRIDFORMAT_END
 95
        8
302
GRIDFORMAT
  1
GRIDFORMAT_BEGIN
 90
        0
 91
        1
 62
     0
 92
       -2
340
0
 93
        0
 40
0.045
309
GRIDFORMAT_END
 95
       16
302
GRIDFORMAT
  1
GRIDFORMAT_BEGIN
 90
        0
 91
        1
 62
     0
 92
       -2
340
0
 93
        0
 40
0.045
309
GRIDFORMAT_END
 95
       32
302
GRIDFORMAT
  1
GRIDFORMAT_BEGIN
 90
        0
 91
        1
 62
     0
 92
       -2
340
0
 93
        0
 40
0.045
309
GRIDFORMAT_END
309
TABLEFORMAT_END
  1
CELLSTYLE_BEGIN
 90
        2
 91
        1
300
_HEADER
309
CELLSTYLE_END
300
CELLSTYLE
  1
TABLEFORMAT_BEGIN
 90
        5
170
     1
 91
        0
 92
        0
 62
   257
 93
        1
300
CONTENTFORMAT
  1
CONTENTFORMAT_BEGIN
 90
        0
 91
        0
 92
      512
 93
        0
300

 40
0.0
140
1.0
 94
        2
 62
     0
340
11
144
0.18
309
CONTENTFORMAT_END
171
     1
301
MARGIN
  1
CELLMARGIN_BEGIN
 40
0.06
 40
0.06
 40
0.06
 40
0.06
 40
0.18
 40
0.18
309
CELLMARGIN_END
 94
        6
 95
        1
302
GRIDFORMAT
  1
GRIDFORMAT_BEGIN
 90
        0
 91
        1
 62
     0
 92
       -2
340
0
 93
        0
 40
0.045
309
GRIDFORMAT_END
 95
        2
302
GRIDFORMAT
  1
GRIDFORMAT_BEGIN
 90
        0
 91
        1
 62
     0
 92
       -2
340
0
 93
        0
 40
0.045
309
GRIDFORMAT_END
 95
        4
302
GRIDFORMAT
  1
GRIDFORMAT_BEGIN
 90
        0
 91
        1
 62
     0
 92
       -2
340
0
 93
        0
 40
0.045
309
GRIDFORMAT_END
 95
        8
302
GRIDFORMAT
  1
GRIDFORMAT_BEGIN
 90
        0
 91
        1
 62
     0
 92
       -2
340
0
 93
        0
 40
0.045
309
GRIDFORMAT_END
 95
       16
302
GRIDFORMAT
  1
GRIDFORMAT_BEGIN
 90
        0
 91
        1
 62
     0
 92
       -2
340
0
 93
        0
 40
0.045
309
GRIDFORMAT_END
 95
       32
302
GRIDFORMAT
  1
GRIDFORMAT_BEGIN
 90
        0
 91
        1
 62
     0
 92
       -2
340
0
 93
        0
 40
0.045
309
GRIDFORMAT_END
309
TABLEFORMAT_END
  1
CELLSTYLE_BEGIN
 90
        3
 91
        2
300
_DATA
309
CELLSTYLE_END
  0
ENDSEC
  0
SECTION
  2
ACDSDATA
 70
     2
 71
     8
  0
ACDSSCHEMA
 90
        0
  1
AcDb_Thumbnail_Schema
  2
AcDbDs::ID
280
    10
 91
        8
  2
Thumbnail_Data
280
    15
 91
        0
101
ACDSRECORD
 95
        0
 90
        1
  2
AcDbDs::TreatedAsObjectData
280
     1
291
     1
101
ACDSRECORD
 95
        0
 90
        2
  2
AcDbDs::Legacy
280
     1
291
     1
101
ACDSRECORD
  1
AcDbDs::ID
 90
        3
  2
AcDs:Indexable
280
     1
291
     1
101
ACDSRECORD
  1
AcDbDs::ID
 90
        4
  2
AcDbDs::HandleAttribute
280
     7
282
     1
  0
ACDSSCHEMA
 90
        1
  1
AcDbDs::TreatedAsObjectDataSchema
  2
AcDbDs::TreatedAsObjectData
280
     1
 91
        0
  0
ACDSSCHEMA
 90
        2
  1
AcDbDs::LegacySchema
  2
AcDbDs::Legacy
280
     1
 91
        0
  0
ACDSSCHEMA
 90
        3
  1
AcDbDs::IndexedPropertySchema
  2
AcDs:Indexable
280
     1
 91
        0
  0
ACDSSCHEMA
 90
        4
  1
AcDbDs::HandleAttributeSchema
  2
AcDbDs::HandleAttribute
280
     7
 91
        1
284
     1
  0
ACDSRECORD
 90
        0
  2
AcDbDs::ID
280
    10
320
22
  2
Thumbnail_Data
280
    15
 94
     1330
310
89504E470D0A1A0A0000000D49484452000001000000006F08030000003479EE6F00000300504C5445212830000000C8C8C80000000000000000000000000000000000000000000000000000330000660000990000CC0000FF0033000033330033660033990033CC0033FF0066000066330066660066990066CC0066FF0099
310
000099330099660099990099CC0099FF00CC0000CC3300CC6600CC9900CCCC00CCFF00FF0000FF3300FF6600FF9900FFCC00FFFF3300003300333300663300993300CC3300FF3333003333333333663333993333CC3333FF3366003366333366663366993366CC3366FF3399003399333399663399993399CC3399FF33CC00
310
33CC3333CC6633CC9933CCCC33CCFF33FF0033FF3333FF6633FF9933FFCC33FFFF6600006600336600666600996600CC6600FF6633006633336633666633996633CC6633FF6666006666336666666666996666CC6666FF6699006699336699666699996699CC6699FF66CC0066CC3366CC6666CC9966CCCC66CCFF66FF0066
310
FF3366FF6666FF9966FFCC66FFFF9900009900339900669900999900CC9900FF9933009933339933669933999933CC9933FF9966009966339966669966999966CC9966FF9999009999339999669999999999CC9999FF99CC0099CC3399CC6699CC9999CCCC99CCFF99FF0099FF3399FF6699FF9999FFCC99FFFFCC0000CC00
310
33CC0066CC0099CC00CCCC00FFCC3300CC3333CC3366CC3399CC33CCCC33FFCC6600CC6633CC6666CC6699CC66CCCC66FFCC9900CC9933CC9966CC9999CC99CCCC99FFCCCC00CCCC33CCCC66CCCC99CCCCCCCCCCFFCCFF00CCFF33CCFF66CCFF99CCFFCCCCFFFFFF0000FF0033FF0066FF0099FF00CCFF00FFFF3300FF3333
310
FF3366FF3399FF33CCFF33FFFF6600FF6633FF6666FF6699FF66CCFF66FFFF9900FF9933FF9966FF9999FF99CCFF99FFFFCC00FFCC33FFCC66FFCC99FFCCCCFFCCFFFFFF00FFFF33FFFF66FFFF99FFFFCCFFFFFF0000000D0D0D1A1A1A2828283535354343435050505D5D5D6B6B6B787878868686939393A1A1A1AEAEAEBB
310
BBBBC9C9C9D6D6D6E4E4E4F1F1F1FFFFFF000000000000000000000000000000000000000000000000000000000000B21171F6000000E84944415478DAEDDA4D0AC2301080D1B941EF7F99DC6AF6FEED4A9480B1B599F7ED2A51986730568C38BED67D34B7CCE1C5D7AE3B53C616C5015AF404AA003CE66F9501CAEF80E7EC
310
A53F0322B3F62930653100001703C87701000000805300C0B200ED376B57DC036B8E3F3ED8B2F3DF77F658214992244992244992244992245DBADDBF223F5F46EF32E7BC160000000000000000C01906F32EBF7B32000000000038ECE4FB9FCE7EC70BFE060200000000000000000000408D79F7B71D0000940538EB06DC0E
310
00E01804000000000000000000E0AB3000B7C3760000A700000000000000F0EA066EA7EAF9080574BB0000000049454E44AE426082549575F5AA0E53C0C6CFFEEAE33740C04E624280B7006D7C6BC54980D4DE80AE60FFC3B55F3DF597937F2440DE02945764CDD3CBF7C667835BFF4104FC7C27E8D46F2220FC410E600820
310
0001E40022000108200710010D3B2ED7E80FE67B817C8EE59C031802EE4320886990952002580A93031802082007100108408069C79D7300BB414E87792162FE3E8021E03E0DF2569895200210400E600820801C400E4000027C3BCE2B31F7DDE075021E8104F338435818F20000000049454E44AE426082000049454E44AE
310
4260820218706E0306D03220FD7F853F82010000000000000000000000000000000000000074F003F98966DAC55AD7D40000000049454E44AE426082
  0
ENDSEC
  0
EOF
